Oops, an error
Loading. Please wait.

Die Mf Die Tab

version 4
version 4

Whole song

Interactive

by Dope
810 views 1 this week
no commentswrite comment
1 2 3 4 5
please rate
add to favorites
launch autoscroll
font size
0
reset
how to read this tab
guitar tuner
Tab Pro tools
  • play this tab
  • loop segment
  • change instrument
  • show fretboard
  • metronome
×
Best way to learn
"Die Mf Die"
Autoscroll
slow
fast
+/-
esc
set tempo
stop
Contributor
Difficulty
novice
This is my tab of Die mf die.

Guitar 1: Edsel
Guitar 2: Virus

(:): start/end verse.


Intro

Guitar 1
:-----------------------------------------------------------------:
:-----------------------------------------------------------------:
:-----------------------------------------------------------------: x2
:-----------------------------------------------------------------:
:-----------------------------------------------------------------:
:-3-0-0-0-3-0-0-0-------------------------------------------------:

Guitars 1 and 2
:---------------------------------------------------------------------------|
:---------------------------------------------------------------------------|
:---------------------------------------------------------------------------|
:---------------------------------------------------------------------------|
:---------------------------------------------------------------------------|
:-3-0-0-0-3-0-0-0-0-3-0-3-0-3-0-0-0-3-0-0-0-3-0-3-0-3-0-3-0-0-0-3-0-0-0-3-0-|

:---------------------------------------------------------------------------|
:---------------------------------------------------------------------------|
:---------------------------------------------------------------------------|
:--------------------5--------------------------------------------5---------|
:---------------------------------------------------------------------------|
:-3-0-3-0-0-0-3-0-0-0--3-0-0-0-3-0-0-0-3-0-3-0-3-0-3-0-0-0-3-0-0-0--3-0-0-0-|

:---------------------------------:
:---------------------------------:
:---------------------------------:
:--------------------------------5:
:---------------------------------:
:-3-0-0-0-3-0-3-0-3-0-0-0-3-0-0-0-:

Verse 1

Guitars 1 and 2
:--------------------------------------:
:--------------------------------------:
:-3-0-0-3-0-3-0-0-3-0-3-0-0-3-0-3-0-0-0:
:-3-0-0-3-0-3-0-0-3-0-3-0-0-3-0-3-0-0-0: x2
:-3-0-0-3-0-3-0-0-3-0-3-0-0-3-0-3-0-0-0:
:--------------------------------------:

Verse 2

Guitars 1 and 2
:-----------------------------------------------------------------------------------:
:-----------------------------------------------------------------------------------:
:-----------------------------------------------------------------------------------:
:-----------------------------------------------------------------------------------:
:-----------------------------------------------------------------------------------:
:-0-0-0-0-3-0-0-0-0-3-0-0-0-0-3-0-0-0-0-3-3-0-0-0-0-3-0-0-0-0-3-0-0-0-0-3-0-0-0-0-3-:

Pre-refrain

:---------------------------------------------:
:---------------------------------------------:
:-10-10-10-12-10-10-10-13-10-10-10-11-10-3-3--:
:-10-10-10-12-10-10-10-13-10-10-10-11-10-3-3--:
:-10-10-10-12-10-10-10-13-10-10-10-11-10-3-3--:
:---------------------------------------------:
Refrain (Die mf die, mf die!)

Guitars 1 and 2
:------------------------------------------------------------------------:
:------------------------------------------------------------------------:
:------------------------------------------------------------------------:
:------------------------------------------------------------------------:x2
:---------------------------------5--------------------------------------:
:-3-3-3-3-x-3-3-3-3-x-3-3-3-3--3-3--3-3-3-3-x-3-3-3-3-x-3-0-0-0-3-0-0-0--:

Repeat verse 2.
Repeat pre-refrain.
Repeat refrain.
Repeat x1 intro.
Repeat verse 1.
Repeat verse 2.
Repeat pre-refrain with more:
:----:
:----:
:----:
:-0-0:
:----:
:----:

Repeat refrain.
Repeat x2 intro.

That's all.
comments
We did not receive enough feedback on this tab! Please rate:
print report bad tab
1 2 3 4 5
I want to post or [tab]
guest
You may want to rate the tab now too:
select rating
Please do not post tabs as comments. Select "correction" instead!