Oops, an error
Loading. Please wait.

Dream Tab

version 2
version 2

Whole song

by Dope
237 views 1 this week
no commentswrite comment
1 2 3 4 5
please rate
add to favorites
launch autoscroll
font size
0
reset
how to read this tab
guitar tuner
Tab Pro tools
  • play this tab
  • loop segment
  • change instrument
  • show fretboard
  • metronome
×
Best way to learn
"Dream"
Autoscroll
slow
fast
+/-
esc
set tempo
stop
Contributor
"Dream" - Dope
Tabbed By: Sheppy96
Email: maggots1996googlemailcom

=========================================
INTRO Guitar 1

C#|----------------------------------|----------------------------------|
G#|----------------------------------|----------------------------------|
E |----------------------------------|----------------------------------|
B |-------7--8--7---3----5-----------|-------7--8--7---3----5-----------|
F#|--0-0--7--8--7---3----5--0-0-6p0--|--0-0--7--8--7---3----5--0-0h1p0--|
B |--0-0--7--8--7---3----5-----------|--0-0--7--8--7---3----5-----------|
     . .                    . .         . .                    .

C#|----------------------------------|-------------------------|
G#|----------------------------------|-------------------------|
E |----------------------------------|-------------------------|
B |-------7--8--7---3----5-----------|-------7--8--7---3----5--|
F#|--0-0--7--8--7---3----5--0-0-6p0--|--0-0--7--8--7---3----5--|
B |--0-0--7--8--7---3----5-----------|--0-0--7--8--7---3----5--|
     . .                    . .         . .

=========================================
INTRO Guitar 2

C#|-----------------------------------------------|--------------------------------------|
G#|-----------------------------------------------|--------------------------------------|
E |--14--14-14-14-14-14-14-12--14-14----14-14-14--|--14--14-14-14-14-14-14-12--14-14-16--|
B |----------------------------------12-----------|--------------------------------------|
F#|-----------------------------------------------|--------------------------------------|
B |-----------------------------------------------|--------------------------------------|

=========================================
VERSE Guitar 1

C#|-------------------------------------|
G#|-------------------------------------|
E |-------------------------------------|
B |-------------------------------------|
F#|--13---5--5--5-7-7-5-7-5--5--5--3-5--|
B |--13---5--5--5-7-7-5-7-5--5--5--3-5--|
     .    .  .  . . . . . .  .  .  . .

=========================================
VERSE Guitar 2

C#|--------|--------|--------|---------|
G#|--------|--------|--------|---------|
E |--8-----|-----7--|--8-----|--8---7--|
B |--8-----|-----7--|--8-----|--8---7--|
F#|--6-----|-----5--|--6-----|--6---5--|
B |--------|--------|--------|---------|

=========================================
PRE-CHORUS Guitar 1

C#|-----------------------------------------------------|
G#|-----------------------------------------------------|
E |-----------------------------------------------------|
B |--5h7--7-7-7-7-7-7-5h7--7-7-7-7-7-7-5h7-7-7-8p5h7p5--|
F#|-----------------------------------------------------|
B |-----------------------------------------------------|

=========================================
PRE-CHORUS Guitar 2

C#|----------------|
G#|----------------|
E |--9-------8--9--|
B |--x---7---8--9--|
F#|--7-------6--7--|
B |----------------|

=========================================
CHORUS Guitar 1
   >                            Repeat x 2                             <
C#|----------------------------------|----------------------------------|
G#|----------------------------------|----------------------------------|
E |----------------------------------|----------------------------------|
B |-------7--8--7---3----5-----------|-------7--8--7---3----5-----------|
F#|--0-0--7--8--7---3----5--0-0-6p0--|--0-0--7--8--7---3----5--0-0h1p0--|
B |--0-0--7--8--7---3----5-----------|--0-0--7--8--7---3----5-----------|
     . .                    . .         . .                    .

C#|----------------------------------|-------------------------|
G#|----------------------------------|-------------------------|
E |----------------------------------|-------------------------|
B |-------7--8--7---3----5-----------|-------7--8--7---3----5--|
F#|--0-0--7--8--7---3----5--0-0-6p0--|--0-0--7--8--7---3----5--|
B |--0-0--7--8--7---3----5-----------|--0-0--7--8--7---3----5--|
     . .                    . .         . .

=========================================
CHORUS Guitar 2

C#|----------------------------------|----------------------------------|
G#|----------------------------------|----------------------------------|
E |----------------------------------|----------------------------------|
B |----------------------------------|----------------------------------|
F#|----------------------------------|----------------------------------|
B |----------------------------------|----------------------------------|


C#|-----------------------------------------------|--------------------------------------|
G#|-----------------------------------------------|--------------------------------------|
E |--14--14-14-14-14-14-14-12--14-14----14-14-14--|--14--14-14-14-14-14-14-12--14-14-16--|
B |----------------------------------12-----------|--------------------------------------|
F#|-----------------------------------------------|--------------------------------------|
B |-----------------------------------------------|--------------------------------------|

=========================================
BRIDGE Guitar 1
   >    Repeat x 2  < >   Repeat x 5   <                      >   Repeat x  3  <
C#|------------------|------------------|--------------------|------------------|
G#|------------------|------------------|--------------------|------------------|
E |------------------|------------------|--------------------|------------------|
B |------------------|------------------|--------------------|------------------|
F#|-----6------------|-----6------------|-----6--------------|-----6------------|
B |--7-----7--6h7p6--|--7-----7--6h7p6--|--7-----7--6-6h7p6--|--7-----7--6h7p6--|

                        >   Repeat x 3   <
C#|--------------------|------------------|
G#|--------------------|------------------|
E |--------------------|------------------|
B |--------------------|------------------|
F#|-----6--------------|-----6------------|
B |--7-----7--6-6h7p6--|--7-----7--6h7p6--|

=========================================
BRIDGE Guitar 2
   >   Repeat x 2   < >     Repeat x 5  <                     >   Repeat x  4  <
C#|------------------|------------------|--------------------|------------------|
G#|------------------|------------------|--------------------|------------------|
E |------------------|------------------|--------------------|------------------|
B |------------------|------------------|--------------------|------------------|
F#|------------------|-----6------------|-----6--------------|-----6------------|
B |------------------|--7-----7--6h7p6--|--7-----7-----------|--7-----7--6h7p6--|

                        >   Repeat x  4  <
C#|--------------------|------------------|
G#|--------------------|------------------|
E |--------------------|------------------|
B |--------------------|------------------|
F#|-----6--------------|-----6------------|
B |--7-----7--6-6h7p6--|--7-----7--6h7p6--|

=========================================

.     Palm-mute
h     Hammer-on
p     Palm-mute
comments
We did not receive enough feedback on this tab! Please rate:
print report bad tab
1 2 3 4 5
I want to post or [tab]
guest
You may want to rate the tab now too:
select rating
Please do not post tabs as comments. Select "correction" instead!