Oops, an error
Loading. Please wait.

Everything Sucks Tab

version 1
version 1

Whole song

by Dope
5,179 views 15 this week
6 commentsread comments
1 2 3 4 5
excellent!
x 12
add to favorites
launch autoscroll
font size
0
reset
how to read this tab
guitar tuner
Autoscroll
slow
fast
+/-
esc
set tempo
stop
Help us to improve Ultimate-Guitar.com Take our survey!
×
name: Mason Schneider

artist: Dope

SongTitle: Everything Sucks

Tabs: Dope
Everything Sucks
From the album Felons and Revolutionaries
Tab by maseman56@hotmail.com
If you have any questions Feel free to e-mail me.

Dropped D tuning (D,A,D,G,b,e)


Intro consists of  synthesizer sound
then guitar  comes in with this:

Intro, Bridge (With metal Distortion):
e:-------------------------------
b:-------------------------------
g:-------------------------------
d:-xx-x-2-xx-x-3-xx-6------------
a:-xx-x-2-xx-x-3-xx-6------------
d:-xx-x-2-xx-x-3-xx-6------------

Verse (With Metal Distortion):
e:-----------------------
b:-----------------------
g:-----------------------
d:-xxxx-3-0-xxxx-x-xx----
a:-xxxx-3-0-xxxx-x-xx----
d:-xxxx-3-0-xxxx-x-xx----

Variation to Verse Riff (With Metal Distortion):
e:----------------------------
b:----------------------------
g:----------------------------
d:-xxxx-6-0--5-0--3-0-xxx-x---
a:-xxxx-6-0--5-0--3-0-xxx-x---
d:-xxxx-6-0--5-0--3-0-xxx-x---        then go back to regular Verse

Chorus (With Metal Distortion):
e:----------------------
b:----------------------
g:----------------------
d:-8--8-4-4--6--6-2-1---
a:-8--8-4-4--6--6-2-1---
d:-8--8-4-4--6--6-2-1---      

After 2nd Chorus go back to Intro Riff a Few times
Then Go to Verse Riff +Verse Variation to end 
Suggest correction
What's this?
You can suggest a correction to this tab. Community and Mods will review your correction and vote to approve or reject it.
comments
print report bad tab
6 comments total. Showing first comments.
0 reply
unwanted_child 339 wrote on March 13 2003, 12:00 am

listen and the intro is actually this:
e:-------------------------------
b:-------------------------------
g:-------------------------------
d:-xx-x-3-xx-x-4-xx-7------------
a:-xx-x-3-xx-x-4-xx-7------------
d:-xx-x-3-xx-x-4-xx-7------------

0 reply
unwanted_child 339 wrote on March 13 2003, 12:00 am

Verse (With Metal Distortion):
e:-----------------------
b:-----------------------
g:-----------------------
d:-xxxx-4-1-xxxx-x-xx----
a:-xxxx-4-1-xxxx-x-xx----
d:-xxxx-4-1-xxxx-x-xx----

0 reply
keka45 14 wrote on April 21 2003, 12:00 am

unwanted_child this tab is right i havethe book dumbass

guest
You may want to rate the tab now too:
select rating
Please do not post tabs as comments. Select "correction" instead!