Oops, an error
Loading. Please wait.

Nothing For Me Here bass

version 2
version 2

Whole song

Interactive

by Dope
121 views 1 this week
no commentswrite comment
1 2 3 4 5
x 3
add to favorites
×
Save as Personal and add changes to this tab that will be seen only by you. Learn more ›
×
You can save this tab as Personal to edit and correct it or add notes. All changes will be seen only by you. Learn more »
launch autoscroll
font size
0
reset
guitar tuner
backing track
0:00
0:00
edit
Autoscroll
slow
fast
+/-
esc
set tempo
stop
Lyrics, bass lines, and timestamps included in it all. Hope this provides accuracy. Nice medley from Guitar
Hero III. The bass is essentially having similar patterns up until the solos.

------------------------------------------------------------------------------------------------------------

Timestamps: 0:05 - Bass starts on intro

            0:17 - Verse

            0:28 - Pre-Chorus

            0:39 - Chorus

            0:50 - Verse

            1:01 - Pre-Chorus

            1:12 - Chorus

            1:34 - Bridge

            1:59 - Solo

            2:10 - Chorus

            2:38 - Solos/Outro

            2:55 - End Song

-----------------------------------------------------------------------------------------------------------

Intro: G|--------------------------|
       D|--------------------------|
       A|-7\---------34~-34-----1~-|
       E|----11121~-1------4~-43---|

       G|-----------------------|
       D|-----------------------| (Repeat whole intro three times)
       A|---------34~-34~-------|
       E|-11121~-1--------2-2-2-|

Verse: G|----------------------|
       D|----------------------|
       A|--------34~-34-----1~-|
       E|-1121~-1------4~-43---|

          How many times should I stop and believe in myself?

       G|----------------------|
       D|----------------------| 
       A|--------34~-34~-------|
       E|-1121~-1--------2-2-2-|

          I don't believe much in anything.

       G|----------------------|
       D|----------------------|
       A|--------34~-34-----1~-|
       E|-1121~-1------4~-43---|

          I've seen enough of the pain and the shame and the blame.

       G|----------------------|
       D|----------------------| 
       A|--------34~-34~-------|
       E|-1121~-1--------2-2-2-|

          It don't amount up to anything. Now I

Pre-Chorus: G|----------------------|
            D|----------------------|
            A|--------34~-34-----1~-|
            E|-1121~-1------4~-43---|

               Rewind back to a time where I would

            G|----------------------|
            D|----------------------| 
            A|--------34~-34~-------|
            E|-1121~-1--------2-2-2-|

               do anything and pay any price. And I

            G|----------------------|
            D|----------------------|
            A|--------34~-34-----1~-|
            E|-1121~-1------4~-43---|

               need time 'cause I'm starting to think that the

            G|----------------------|
            D|----------------------| 
            A|--------34~-34~-------|
            E|-1121~-1--------2-2-2-|

               promises ain't worth the sacrifice. And there's

Chorus: G|-----------------------|
        D|-----------------------|
        A|---------34~-34-----1~-|
        E|-11121~-1------4~-43---|

           Nothing for me here.

        G|-----------------------|
        D|-----------------------| 
        A|---------34~-34~-------|
        E|-11121~-1--------2-2-2-|

        G|-----------------------|
        D|-----------------------|
        A|---------34~-34-----1~-|
        E|-11121~-1------4~-43---|

           There's nothing for me here.

        G|-----------------------|
        D|-----------------------|
        A|---------34~-34~-------|
        E|-11121~-1--------2-2-2-|

Verse: G|----------------------|
       D|----------------------|
       A|--------34~-34-----1~-|
       E|-1121~-1------4~-43---|

          How many nights should I walk in my sleep? And I

       G|----------------------|
       D|----------------------| 
       A|--------34~-34~-------|
       E|-1121~-1--------2-2-2-|

          dream of how much I want to run away.

       G|----------------------|
       D|----------------------|
       A|--------34~-34-----1~-|
       E|-1121~-1------4~-43---|

          I've had enough of the stress and the mess. I can't

       G|----------------------|
       D|----------------------| 
       A|--------34~-34~-------|
       E|-1121~-1--------2-2-2-|

          take anymore 'cause I gotta get away. Now I

Pre-Chorus: G|----------------------|
            D|----------------------|
            A|--------34~-34-----1~-|
            E|-1121~-1------4~-43---|

               know why I'm empty inside and I'm

            G|----------------------|
            D|----------------------| 
            A|--------34~-34~-------|
            E|-1121~-1--------2-2-2-|

               sure I've only got myself to blame. And I

            G|----------------------|
            D|----------------------|
            A|--------34~-34-----1~-|
            E|-1121~-1------4~-43---|

               don't try to view the lies. It's just a 

            G|-------------------|
            D|-------------------| 
            A|--------34~-34~-7\-|
            E|-1121~-1-----------|

               waste of time I'll never be the same. There's

Chorus: G|-----------------------|
        D|-----------------------|
        A|---------34~-34-----1~-|
        E|-11121~-1------4~-43---|

           Nothing for me here.

        G|-----------------------|
        D|-----------------------| 
        A|---------34~-34~-------|
        E|-11121~-1--------2-2-2-|

        G|-----------------------|
        D|-----------------------|
        A|---------34~-34-----1~-|
        E|-11121~-1------4~-43---|

           There's nothing for me here.

        G|-----------------------|
        D|-----------------------|
        A|---------34~-34~-------|
        E|-11121~-1--------2-2-2-|

        G|-----------------------|
        D|-----------------------|
        A|---------34~-34-----1~-|
        E|-11121~-1------4~-43---|

           There's nothing for me here.

        G|-----------------------|
        D|-----------------------| 
        A|---------34~-34~-------|
        E|-11121~-1--------2-2-2-|

           I gave you my life and it's fading away.

        G|-----------------------|
        D|-----------------------|
        A|---------34~-34-----1~-|
        E|-11121~-1------4~-43---|

           There's nothing for me here.

        G|-----------------------|
        D|-----------------------|
        A|---------34~-34~-------|
        E|-11121~-1--------2-2-2-|

           I gave you my life just to fade away.

Bridge: G|--------------------|
        D|--------------------|
        A|-5\-----------------|
        E|----9p8p6h8p4h6p3h4-|

        G|-------------------------------|
        D|---6-8----6-8----6-8-----------|
        A|-44-4-4-44-4-4-44-4-4-44446666-|
        E|-------------------------------|

           And I can't go on. And I can't explain.

        G|--------------------------------------|
        D|--------------------------------------|
        A|---3-4----3-4----3-4------------------|
        E|-11-1-1-11-1-1-11-1-1-9p8p6h8p4h6p3h4-|

           When everyone's going on, life's falling away.

        G|-------------------------------|
        D|---6-8----6-8----6-8-----------|
        A|-44-4-4-44-4-4-44-4-4-44446666-|
        E|-------------------------------|

           And I can't rewind. And there's no escape.

        G|----------------------------------------|
        D|----------------------------------------|
        A|---3-4----3-4----3-4--------------------|
        E|-11-1-1-11-1-1-11-1-1-1h3h44h6h8p6h8h9~-|

           It's been so long and I just don't feel the same.

Solo: G|-----------------------------------------------------|
      D|-------------------------6~--------------------------|
      A|-444444444444444444444444---444444444444444444444444-|
      E|-----------------------------------------------------|

      G|----------------------------------------333555(10)~-|
      D|-------------------------8~----333555666------------|
      A|-666666666666666666666666---666---------------------|
      E|----------------------------------------------------|

Chorus: G|-----------------------|
        D|-----------------------|
        A|---------34~-34-----1~-|
        E|-11121~-1------4~-43---|

           Nothing for me here.

        G|-----------------------|
        D|-----------------------| 
        A|---------34~-34~-------|
        E|-11121~-1--------2-2-2-|

        G|-----------------------|
        D|-----------------------|
        A|---------34~-34-----1~-|
        E|-11121~-1------4~-43---|

           There's nothing for me here.

        G|-----------------------|
        D|-----------------------|
        A|---------34~-34~-------|
        E|-11121~-1--------2-2-2-|

        G|-----------------------|
        D|-----------------------|
        A|---------34~-34-----1~-|
        E|-11121~-1------4~-43---|

           There's nothing for me here.

        G|-----------------------|
        D|-----------------------| 
        A|---------34~-34~-------|
        E|-11121~-1--------2-2-2-|

           I gave you my life and it's fading away.

        G|-----------------------|
        D|-----------------------|
        A|---------34~-34-----1~-|
        E|-11121~-1------4~-43---|

           There's nothing for me here.

        G|-----------------------|
        D|-----------------------|
        A|---------34~-34~-------|
        E|-11121~-1--------2-2-2-|

           I gave you my life just to fade away.

Outro/Solo: G|-----------------------|
            D|-----------------------|
            A|---------34~-34-----1~-|
            E|-11121~-1------4~-43---|

               How many times should I 

            G|-----------------------|
            D|-----------------------| 
            A|---------34~-34~-------|
            E|-11121~-1--------2-2-2-|

               stop and believe in myself?

            G|-----------------------|
            D|-----------------------|
            A|---------34~-34-----1~-|
            E|-11121~-1------4~-43---|

               I don't believe much in

            G|-----------------------|
            D|-----------------------|
            A|---------34~-34~-------|
            E|-11121~-1--------2-2-2-|

               anything.

            G|-----------------------|
            D|-----------------------|
            A|---------34~-34-----1~-|
            E|-11121~-1------4~-43---|

               There's nothing for me here.

            G|-----------------------|
            D|-----------------------| 
            A|---------34~-34~-------|
            E|-11121~-1--------2-2-2-|

           
            G|-----------------------|
            D|-----------------------|
            A|---------34~-34-----1~-|
            E|-11121~-1------4~-43---|

               There's nothing for me here.

            G|-------------333555888(12)-(10)~-|
            D|----333555666--------------------|
            A|-666-----------------------------|
            E|---------------------------------|

               I gave you my life just to fade away. 

            
            
Suggest correction
Creating personal tab
Creating personal tab
You can edit any tab online and save it as your Personal.

You can edit, replace or remove any tab part or add personal notes – all changes will be seen only by you.

Personal tabs can be accessed anytime from any device, even offline.
Learn more »
Give kudos to tab author, rate the tab!
1 2 3 4 5
comments
print report bad tab
guest
You may want to rate the tab now too:
select rating
Wanna post a correction for this tab? Suggest correction