Oops, an error
Loading. Please wait.

Now Or Never Tab

version 1
version 1

Whole song

Interactive

by Dope
4,567 views 12 this week
2 commentsread comments
1 2 3 4 5
accurate
x 3
add to favorites
launch autoscroll
font size
0
reset
how to read this tab
guitar tuner
Tab Pro tools
  • play this tab
  • loop segment
  • change instrument
  • show fretboard
  • metronome
Autoscroll
slow
fast
+/-
esc
set tempo
stop
Artist: Dope
Song: Now Or Never
Album: Life
Tabbed By: Brandon Knoepfler (SeXCrAzY121900@aol.com)
Tuning: This tab is for a 7-string, you can play it on a 6
string, there is just one chord you wont be able to play
during the chorus. A, D, A, D, G, B, E (From low to high)
Im going to make a 6 string version soon.
Key: H - Hit on
     / - Slide up
     \ - Slide Down

Intro: 7th string not used
E|-------------------------------------------|
B|-------------------------------------------|
G|-------------------------------------------|
D|-------------------------------------------|
A|-------------------4h6-4h6-4h6-4h6--4/12\0-|
D|-4h6-4h6-4h6-4h6---4h6-4h6-4h6-4h6--4/12\0-|

Post Intro: 7th string not used
E|------------------------|
B|------------------------|
G|------------------------|
D|-4-6--4-6--4-6--4-6-0h7-|
A|-4-6--4-6--4-6--4-6-0h7-|
D|-4-6--4-6--4-6--4-6-0h7-|

Verse: 7th string not used
E|------????-|
B|------????-|
G|------????-|
D|-6\0--????-|
A|-6\0--????-|
D|-6\0--????-|
I cant figure out the verse, I have tried everything
an nothing sounds right, even wah. If you have any
ideas, e-mail them to me, or put them in the correction
thing below.

Post Verse: 7th string not used
E|----------------------------------------------------------
B|----------------------------------------------------------
G|----------------------------------------------------------
D|-6-6--6-6--6-6--6-6--6-6-6-6--9-9--9-9--9-9--9-9--9-9-9-9-
A|-6-6--6-6--6-6--6-6--6-6-6-6--9-9--9-9--9-9--9-9--9-9-9-9-
D|-6-6--6-6--6-6--6-6--6-6-6-6--9-9--9-9--9-9--9-9--9-9-9-9-

Post Verse(CONTINUED)
E|----------------------------------------------------------|
B|----------------------------------------------------------|
G|----------------------------------------------------------|
D|-4-4--4-4--4-4--4-4--4-4-4-4--1-1--1-1--4-4--4-4--4-4-4-4-|
A|-4-4--4-4--4-4--4-4--4-4-4-4--1-1--1-1--4-4--4-4--4-4-4-4-|
D|-4-4--4-4--4-4--4-4--4-4-4-4--1-1--1-1--4-4--4-4--4-4-4-4-|

Pre Chorus #1: 7th string not used
E|-------------------------|
B|-------------------------|
G|-------------------------|
D|------------------4/12\0-|
A|------------------4/12\0-|
D|-4h6-4h6-4h6-4h6--4/12\0-|

Pre Chorus #2: 7th string not used
E|-----|
B|-----|
G|-----|
D|-6\0-|
A|-6\0-|
D|-6\0-|

Chorus: 7th string is used
E|------------------------------------------------------------------
B|------------------------------------------------------------------
G|------------------------------------------------------------------
D|-4\6-4\6-4\6-4\6-4--6--0h2-0h2-0h2-0h2-0--2-----------------------
A|-4\6-4\6-4\6-4\6-4--6--0h2-0h2-0h2-0h2-0--2-----------------------
D|-4\6-4\6-4\6-4\6-4--6--0h2-0h2-0h2-0h2-0--2--6-6-6-6-6-6-6-6-6--6-
A|---------------------------------------------4-4-4-4-4-4-4-4-4--4-

Chorus:(CONTINUED)
E|-----------------|
B|-----------------|
G|-----------------|
D|-4-4-4-4/5-5-5-5-|
A|-4-4-4-4/5-5-5-5-|
D|-4-4-4-4/5-5-5-5-|
A|-----------------|

Bridge: 7th string not used, All palm muted
E|------------------------------------------------------------
B|------------------------------------------------------------
G|------------------------------------------------------------
D|------------------------------------------------------------
A|------------------------------------------------------------
D|-6-6--6-6--6-6--6-6--9-9--9-9--9-9--9-9--4-4--4-4--4-4--4-4-

Bridge:(CONTINUED)
E|--------------------|
B|--------------------|
G|--------------------|
D|--------------------|
A|--------------------|
D|-1-1--1-1--4-4--4-4-|

Song Order:
Intro: x1
Post Intro: x4
Verse: x4
Post Verse: x2
Pre Chorus #1: x1
Chorus: x2
Verse: x4
Post Verse: x2
Pre Chorus #2: x1
Chorus: x2
Post Intro: x8
Bridge: x2
Pre Chorus #1: x1
Chorus: x4
Post Intro: x4

Thats it, please rate my tab!!!
- Brandon -
comments
We did not receive enough feedback on this tab! Please rate:
print report bad tab
1 2 3 4 5
2 comments total.
0 reply
Moshock13 wrote on April 30 2009, 09:18 pm

i've never even heard of a 7 string before

0 reply
UnderKhaos wrote on April 23 2013, 12:34 pm

I thought it was in drop C?

verse
D|---------------------------------------------------
A|---------------------------------------------------
F|-3------------1--3-3-3-3-3-3-3-3-3-3-3-1-1-1-1-1---
C|-3---1--1--3---------------------------------------
G|-1-------------------------------------------------
C|---------------------------------------------------

D|---------------------------------------------------
A|---------------------------------------------------
F|-3-------------------------------------------------
C|-3------------1--3-3-3-3-3-3-1-1-1-1-1-1-----------
G|-1---1--1--4-----------------------------4-4-4-4---
C|---------------------------------------------------

Not sure how many times the notes are played, soo yea..

I want to post or [tab]
guest
You may want to rate the tab now too:
select rating
Please do not post tabs as comments. Select "correction" instead!