Oops, an error
Loading. Please wait.

You Spin Me Right Round bass

version 3
version 3

Whole song

Interactive

by Dope
3,310 views 1 this week
2 commentsread comments
1 2 3 4 5
2 more votes to show rating
add to favorites
×
Save as Personal and add changes to this tab that will be seen only by you. Learn more ›
×
You can save this tab as Personal to edit and correct it or add notes. All changes will be seen only by you. Learn more »
launch autoscroll
font size
0
reset
guitar tuner
edit
Autoscroll
slow
fast
+/-
esc
set tempo
stop
Hithis is Dr.Sketchy this is my Six tab. I'm sure its 100%. PLease don't copy and
this because is my own work thanks. I have this tab on ttabs and Ultimate Guitar.

Song-You Spin me Round
Artist-Dope
Album-Felons for Revolutionairies
Tuning-(B,F#,B,E)
Bassist-Acey Slade

Legend
~=Let Ring
PM=Palm Mute

Intro 1
E |-------------------|
B |-------------------|
F#|-------------------|
B |--4-4-4-4-7-7-2-2--|

E |------------------------------------------|
B |------------------------------------------|
F#|------------------------------------------|
B |--44444444-7777-2222--44444444-9999-2222--|

E |--------------------------------------------------|
B |--------------------------------------------------|
F#|--------------------------------------------------|
B |--11111111-7777-6666-444444444444444--4-4-xxxx-2--|

Verse
E |--------------------------------------------------------------|
B |--------------------------------------------------------------|
F#|--------------------------------------------------------------|
B |--2-4-X-XX-XX-X--2-4-X-XX-XX-X--7-9-X-XX-XX-X--7-9-X-XX-XX-X--|

E |--------------------------------------------------------------|
B |--------------------------------------------------------------|
F#|--------------------------------------------------------------|
B |--2-4-X-XX-XX-X--2-4-X-XX-XX-X--7-9-X-XX-XX-X--7-9-X-XX-XX-X--|

Pre-Chorus
E |-----------------------------------------------|
B |-----------------------------------------------|
F#|-----------------------------------------------|
B |--444444444-66666666-7777777-1111111111111111--|

Verse
E |--------------------------------------------------------------|
B |--------------------------------------------------------------|
F#|--------------------------------------------------------------|
B |--2-4-X-XX-XX-X--2-4-X-XX-XX-X--7-9-X-XX-XX-X--7-9-X-XX-XX-X--|

E |--------------------------------------------------------------|
B |--------------------------------------------------------------|
F#|--------------------------------------------------------------|
B |--2-4-X-XX-XX-X--2-4-X-XX-XX-X--7-9-X-XX-XX-X--7-9-X-XX-XX-X--|

Pre-Chorus
E |-----------------------------------------------|
B |-----------------------------------------------|
F#|-----------------------------------------------|
B |--444444444-66666666-7777777-1111111111111111--|

Chorus
E |------------------------------------------|
B |------------------------------------------|
F#|------------------------------------------|
B |--44444444-7777-2222--44444444-9999-2222--|

E |------------------------------------------|
B |------------------------------------------|
F#|------------------------------------------|
B |--44444444-7777-2222--44444444-9999-2222--|

Pre-Verse
E |-----------|
B |-----------|
F#|-----------|
B |--4-4-4-4--|

Verse
E |--------------------------------------------------------------|
B |--------------------------------------------------------------|
F#|--------------------------------------------------------------|
B |--2-4-X-XX-XX-X--2-4-X-XX-XX-X--7-9-X-XX-XX-X--7-9-X-XX-XX-X--|

E |--------------------------------------------------------------|
B |--------------------------------------------------------------|
F#|--------------------------------------------------------------|
B |--2-4-X-XX-XX-X--2-4-X-XX-XX-X--7-9-X-XX-XX-X--7-9-X-XX-XX-X--|

Pre-Chorus
E |-----------------------------------------------|
B |-----------------------------------------------|
F#|-----------------------------------------------|
B |--444444444-66666666-7777777-1111111111111111--|

Chorus
E |------------------------------------------|
B |------------------------------------------|
F#|------------------------------------------|
B |--44444444-7777-2222--44444444-9999-2222--|

E |------------------------------------------|
B |------------------------------------------|
F#|------------------------------------------|
B |--44444444-7777-2222--44444444-9999-2222--|

Interlude-Both Guitars
E |--------------------------------------|
B |--------------------------------------|
F#|--------------------------------------|
B |--4444444444444444--9999999999999999--|

Pre-Chorus
E |-----------------------------------------------|
B |-----------------------------------------------|
F#|-----------------------------------------------|
B |--444444444-66666666-7777777-1111111111111111--|

Chorus
E |------------------------------------------|
B |------------------------------------------|
F#|------------------------------------------|
B |--44444444-7777-2222--44444444-9999-2222--|

E |------------------------------------------|
B |------------------------------------------|
F#|------------------------------------------|
B |--44444444-7777-2222--44444444-9999-2222--|

Interlude-Both Guitars
E |--------------------------------------|
B |--------------------------------------|
F#|--------------------------------------|
B |--4444444444444444--9999999999999999--|

Outro
E |--------------------------------------------------|
B |--------------------------------------------------|
F#|--------------------------------------------------|
B |--11111111-7777-6666-444444444444444--4-4-xxxx-2--|

            
            
Suggest correction
Creating personal tab
Creating personal tab
You can edit any tab online and save it as your Personal.

You can edit, replace or remove any tab part or add personal notes – all changes will be seen only by you.

Personal tabs can be accessed anytime from any device, even offline.
Learn more »
Give kudos to tab author, rate the tab!
1 2 3 4 5
comments
print report bad tab
2 comments total.
0 reply
Big daddy 1bass 10 Jul 21, 2009 11:42 PM

damn does anyone know how to play with more than one string...hell just cut of the A,D, and G strings!!!!!!!!

0 reply
Dr.Sketchy 138 Oct 16, 2010 02:22 AM

I no what you mean dude, everybody is just playing boring bass now days.

guest
You may want to rate the tab now too:
select rating
Wanna post a correction for this tab? Suggest correction