Oops, an error
Loading. Please wait.

You Spin Me Right Round tab

version 4
version 4

Whole song

Interactive

by Dope
6,711 views 9 this week
no commentswrite comment
1 2 3 4 5
2 more votes to show rating
add to favorites
×
Save as Personal and add changes to this tab that will be seen only by you. Learn more ›
×
You can save this tab as Personal to edit and correct it or add notes. All changes will be seen only by you. Learn more »
launch autoscroll
font size
0
reset
how to read this tab
guitar tuner
edit
Autoscroll
slow
fast
+/-
esc
set tempo
stop
Hithis is Dr.Sketchy this is my Fourth tab. I'm sure its 100%, And I'm sure it's the 
tuning. Please don't copy and this because is my own work thanks. I have this tab on ttabs 
Ultimate Guitar.

Song-You Spin me Round
Artist-Dope
Album-Felons for Revolutionairies
Tuning-(B,F#,B,E,G#,C#)
Guitar 1-Tripp Eisen Lead
Guitar 2-Edsel Dope Rhythm(Only plays on the album not live but i've doen if you want to
wiv a mate)

Legend
~=Let Ring
PM=Palm Mute

Intro 1-Both Guitars
E|-------------------|
B|-------------------|
G|-------------------|
D|--4-4-4-4-7-7-2-2--|
A|--4-4-4-4-7-7-2-2--|
D|--4-4-4-4-7-7-2-2--|

Intro 2-Both Guitars
E|------------------------------------------|
B|------------------------------------------|
G|------------------------------------------|
D|--44444444-7777-2222--44444444-9999-2222--|
A|--44444444-7777-2222--44444444-9999-2222--|
D|--44444444-7777-2222--44444444-9999-2222--|

Guitar 1
E|--------------------------------------------------|
B|--14~------11~--7~---6~--6~-6~-6~-6~--------------|
G|--------------------------------------------------|
D|--------------------------------------4-4-xxxx-2--|
A|--------------------------------------4-4-xxxx-2--|
D|--------------------------------------4-4-xxxx-2--|

Guitar 2
E|--------------------------------------------------|
B|--------------------------------------------------|
G|--------------------------------------------------|
D|--11111111-7777-6666-444444444444444--4-4-xxxx-2--|
A|--11111111-7777-6666-444444444444444--4-4-xxxx-2--|
D|--11111111-7777-6666-444444444444444--4-4-xxxx-2--|

Verse-Both Guitars
E|--------------------------------------------------------------|
B|--------------------------------------------------------------|
G|--------------------------------------------------------------|
D|--2-4-X-XX-XX-X--2-4-X-XX-XX-X--7-9-X-XX-XX-X--7-9-X-XX-XX-X--|
A|--2-4-X-XX-XX-X--2-4-X-XX-XX-X--7-9-X-XX-XX-X--7-9-X-XX-XX-X--|
D|--2-4-X-XX-XX-X--2-4-X-XX-XX-X--7-9-X-XX-XX-X--7-9-X-XX-XX-X--|

E|--------------------------------------------------------------|
B|--------------------------------------------------------------|
G|--------------------------------------------------------------|
D|--2-4-X-XX-XX-X--2-4-X-XX-XX-X--7-9-X-XX-XX-X--7-9-X-XX-XX-X--|
A|--2-4-X-XX-XX-X--2-4-X-XX-XX-X--7-9-X-XX-XX-X--7-9-X-XX-XX-X--|
D|--2-4-X-XX-XX-X--2-4-X-XX-XX-X--7-9-X-XX-XX-X--7-9-X-XX-XX-X--|

Pre-Chorus
Guitar 1
E|----------------------------------|
B|--6~--------7~-------11~-----14~--|
G|----------------------------------|
D|----------------------------------|
A|----------------------------------|
D|----------------------------------|

Guitar 2
E|-----------------------------------------------|
B|-----------------------------------------------|
G|-----------------------------------------------|
D|--444444444-66666666-7777777-1111111111111111--|
A|--444444444-66666666-7777777-1111111111111111--|
D|--444444444-66666666-7777777-1111111111111111--|

Verse-Both Guitars
E|--------------------------------------------------------------|
B|--------------------------------------------------------------|
G|--------------------------------------------------------------|
D|--2-4-X-XX-XX-X--2-4-X-XX-XX-X--7-9-X-XX-XX-X--7-9-X-XX-XX-X--|
A|--2-4-X-XX-XX-X--2-4-X-XX-XX-X--7-9-X-XX-XX-X--7-9-X-XX-XX-X--|
D|--2-4-X-XX-XX-X--2-4-X-XX-XX-X--7-9-X-XX-XX-X--7-9-X-XX-XX-X--|

E|--------------------------------------------------------------|
B|--------------------------------------------------------------|
G|--------------------------------------------------------------|
D|--2-4-X-XX-XX-X--2-4-X-XX-XX-X--7-9-X-XX-XX-X--7-9-X-XX-XX-X--|
A|--2-4-X-XX-XX-X--2-4-X-XX-XX-X--7-9-X-XX-XX-X--7-9-X-XX-XX-X--|
D|--2-4-X-XX-XX-X--2-4-X-XX-XX-X--7-9-X-XX-XX-X--7-9-X-XX-XX-X--|

Pre-Chorus
Guitar 1
E|----------------------------------|
B|--6~--------7~-------11~-----14~--|
G|----------------------------------|
D|----------------------------------|
A|----------------------------------|
D|----------------------------------|

Guitar 2
E|-----------------------------------------------|
B|-----------------------------------------------|
G|-----------------------------------------------|
D|--444444444-66666666-7777777-1111111111111111--|
A|--444444444-66666666-7777777-1111111111111111--|
D|--444444444-66666666-7777777-1111111111111111--|

Chorus-Both Guitars
E|------------------------------------------|
B|------------------------------------------|
G|------------------------------------------|
D|--44444444-7777-2222--44444444-9999-2222--|
A|--44444444-7777-2222--44444444-9999-2222--|
D|--44444444-7777-2222--44444444-9999-2222--|

E|------------------------------------------|
B|------------------------------------------|
G|------------------------------------------|
D|--44444444-7777-2222--44444444-9999-2222--|
A|--44444444-7777-2222--44444444-9999-2222--|
D|--44444444-7777-2222--44444444-9999-2222--|

Pre-Verse
Guitar 1
E|---------|
B|---------|
G|---------|
D|--4-4-4--|
A|--4-4-4--|
D|--4-4-4--|

Verse-Both Guitars
E|--------------------------------------------------------------|
B|--------------------------------------------------------------|
G|--------------------------------------------------------------|
D|--2-4-X-XX-XX-X--2-4-X-XX-XX-X--7-9-X-XX-XX-X--7-9-X-XX-XX-X--|
A|--2-4-X-XX-XX-X--2-4-X-XX-XX-X--7-9-X-XX-XX-X--7-9-X-XX-XX-X--|
D|--2-4-X-XX-XX-X--2-4-X-XX-XX-X--7-9-X-XX-XX-X--7-9-X-XX-XX-X--|

E|--------------------------------------------------------------|
B|--------------------------------------------------------------|
G|--------------------------------------------------------------|
D|--2-4-X-XX-XX-X--2-4-X-XX-XX-X--7-9-X-XX-XX-X--7-9-X-XX-XX-X--|
A|--2-4-X-XX-XX-X--2-4-X-XX-XX-X--7-9-X-XX-XX-X--7-9-X-XX-XX-X--|
D|--2-4-X-XX-XX-X--2-4-X-XX-XX-X--7-9-X-XX-XX-X--7-9-X-XX-XX-X--|

Pre-Chorus
Guitar 1
E|----------------------------------|
B|--6~--------7~-------11~-----14~--|
G|----------------------------------|
D|----------------------------------|
A|----------------------------------|
D|----------------------------------|

Guitar 2
E|-----------------------------------------------|
B|-----------------------------------------------|
G|-----------------------------------------------|
D|--444444444-66666666-7777777-1111111111111111--|
A|--444444444-66666666-7777777-1111111111111111--|
D|--444444444-66666666-7777777-1111111111111111--|

Chorus-Both Guitars
E|------------------------------------------|
B|------------------------------------------|
G|------------------------------------------|
D|--44444444-7777-2222--44444444-9999-2222--|
A|--44444444-7777-2222--44444444-9999-2222--|
D|--44444444-7777-2222--44444444-9999-2222--|

E|------------------------------------------|
B|------------------------------------------|
G|------------------------------------------|
D|--44444444-7777-2222--44444444-9999-2222--|
A|--44444444-7777-2222--44444444-9999-2222--|
D|--44444444-7777-2222--44444444-9999-2222--|

Interlude-Both Guitars
E|--------------------------------------|
B|--------------------------------------|
G|--------------------------------------|
D|--4444444444444444--9999999999999999--|
A|--4444444444444444--9999999999999999--|
D|--4444444444444444--9999999999999999--|

Pre-Chorus
Guitar 1
E|----------------------------------|
B|--6~--------7~-------11~-----14~--|
G|----------------------------------|
D|----------------------------------|
A|----------------------------------|
D|----------------------------------|

Guitar 2
E|-----------------------------------------------|
B|-----------------------------------------------|
G|-----------------------------------------------|
D|--444444444-66666666-7777777-1111111111111111--|
A|--444444444-66666666-7777777-1111111111111111--|
D|--444444444-66666666-7777777-1111111111111111--|

Chorus-Both Guitars
E|------------------------------------------|
B|------------------------------------------|
G|------------------------------------------|
D|--44444444-7777-2222--44444444-9999-2222--|
A|--44444444-7777-2222--44444444-9999-2222--|
D|--44444444-7777-2222--44444444-9999-2222--|

E|------------------------------------------|
B|------------------------------------------|
G|------------------------------------------|
D|--44444444-7777-2222--44444444-9999-2222--|
A|--44444444-7777-2222--44444444-9999-2222--|
D|--44444444-7777-2222--44444444-9999-2222--|

Interlude-Both Guitars
E|--------------------------------------|
B|--------------------------------------|
G|--------------------------------------|
D|--4444444444444444--9999999999999999--|
A|--4444444444444444--9999999999999999--|
D|--4444444444444444--9999999999999999--|

Outro
Guitar 1
E|--------------------------------------------------|
B|--14~------11~--7~---6~--6~-6~-6~-6~--------------|
G|--------------------------------------------------|
D|--------------------------------------4-4-xxxx-2--|
A|--------------------------------------4-4-xxxx-2--|
D|--------------------------------------4-4-xxxx-2--|

Guitar 2
E|--------------------------------------------------|
B|--------------------------------------------------|
G|--------------------------------------------------|
D|--11111111-7777-6666-444444444444444--4-4-xxxx-2--|
A|--11111111-7777-6666-444444444444444--4-4-xxxx-2--|
D|--11111111-7777-6666-444444444444444--4-4-xxxx-2--|

            
            
Suggest correction
Creating personal tab
Creating personal tab
You can edit any tab online and save it as your Personal.

You can edit, replace or remove any tab part or add personal notes – all changes will be seen only by you.

Personal tabs can be accessed anytime from any device, even offline.
Learn more »
Give kudos to tab author, rate the tab!
1 2 3 4 5
comments
print report bad tab
guest
You may want to rate the tab now too:
select rating
Wanna post a correction for this tab? Suggest correction