Oops, an error
Loading. Please wait.

Neon Lights tab

415 views 54 this week
1 commentread comment
1 2 3 4 5
x 4
add to favorites
×
Save as Personal and add changes to this tab that will be seen only by you. Learn more ›
×
You can save this tab as Personal to edit and correct it or add notes. All changes will be seen only by you. Learn more »
launch autoscroll
font size
0
reset
how to read this tab
guitar tuner
edit
Autoscroll
slow
fast
+/-
esc
set tempo
stop
[Intro]
e|----------------------------------------------------------------------------------------------|
B|-3--3-----3-----3-----3--3/7--7-----7-----7--7--7--7-----7--7h8p7--7-----5-----5-----7--7--5--|
G|----------------------------------------------------------------------------------------------|
D|-5-----5-----5-----5-----5/9-----9-----9-----9--7-----7---------------7-----7-----7-----------|
A|----------------------------------------------------------------------------------------------|
E|----------------------------------------------------------------------------------------------|

e|----------------------------------------------------------------------------------------------|
B|-3--3-----3-----3-----3--3/7--7-----7-----7--7--7--7-----7--7h8p7--7-----5-----5--------------|
G|----------------------------------------------------------------------------------------------|(x2)
D|-5-----5-----5-----5-----5/9-----9-----9-----9--7-----7---------------7-----7-----7-----------|
A|----------------------------------------------------------------------------------------------|
E|----------------------------------------------------------------------------------------------|

e|----------------------------------------------------------------------------------------------|
B|-3--3-----3-----3-----3--3/7--7-----7-----7--7--7--7-----7--7h8p7--7-----5-----5-----7--7--5--|
G|----------------------------------------------------------------------------------------------|
D|-5-----5-----5-----5-----5/9-----9-----9-----9--7-----7---------------7-----7-----7-----------|
A|----------------------------------------------------------------------------------------------|
E|----------------------------------------------------------------------------------------------|

e|----------------------------------------------------------------------------------------------|
B|-3--3-----3-----3-----3--3/7--7-----7-----7--7--7--7-----7--7h8p7--7-----5-----5-----5--------|
G|----------------------------------------------------------------------------------------------|
D|-5-----5-----5-----5-----5/9-----9-----9-----9--7-----7---------------7-----7-----7-----------|
A|----------------------------------------------------------------------------------------------|
E|----------------------------------------------------------------------------------------------|

e|----------------------------------------------------------------------------------------------|
B|-12------12-----12------12--12\7-----7-----------7--7-----7-----7h8p7--7-----5-----5-----5----|
G|-------------------------------------------9--------------------------------------------------|
D|-12--12-----12------12---------9--9-----9-----9-----7--7-----7------------7--7--7-----7-------|
A|----------------------------------------------------------------------------------------------|
E|----------------------------------------------------------------------------------------------|

e|----------------------------------------------------------------------------------------------|
B|-7--7-----7-----7-----7--7-----7-----5-----7-----7-----7-----7h8p7--7-----5-----5-----5-------|
G|----------------------------------------------------------------------------------------------|
D|-7-----7-----7-----7--------7-----7-----7-----7--7--7-----7------------7-----7-----7----------|
A|----------------------------------------------------------------------------------------------|
E|----------------------------------------------------------------------------------------------|

[Verse]
e|----------------------------------------------------------------------------------------------|
B|-3--3-----3-----3-----3--3/7--7-----7-----7--7--7--7-----7--7h8p7--7-----5-----5-----5--------|
G|----------------------------------------------------------------------------------------------|(x2)
D|-5-----5-----5-----5-----5/9-----9-----9-----9--7-----7---------------7-----7-----7-----------|
A|----------------------------------------------------------------------------------------------|
E|----------------------------------------------------------------------------------------------|

e|----------------------------------------------------------------------------------------------|
B|-12------12-----12------12--12\7-----7-----------7--7-----7-----7h8p7--7-----5-----5-----5----|
G|-------------------------------------------9--------------------------------------------------|
D|-12--12-----12------12---------9--9-----9-----9-----7--7-----7------------7--7--7-----7-------|
A|----------------------------------------------------------------------------------------------|
E|----------------------------------------------------------------------------------------------|

e|----------------------------------------------------------------------------------------------|
B|-12------12-----12------12--12\5-----5-----7-----5--7-----7-----7h8p7--7-----5-----5-----5----|
G|----------------------------------------------------------------------------------------------|
D|-12--12-----12------12---------7--7-----7-----7-----7--7-----7------------7--7--7-----7-------|
A|----------------------------------------------------------------------------------------------|
E|----------------------------------------------------------------------------------------------|

[Chorus]
e|----------------------------------------------------------------------------------------------|
B|-3--3-----3-----3-----3--3/7--7-----7-----7--7--7--7-----7--7h8p7--7-----5-----5-----5--------|
G|----------------------------------------------------------------------------------------------|(x2)
D|-5-----5-----5-----5-----5/9-----9-----9-----9--7-----7---------------7-----7-----7-----------|
A|----------------------------------------------------------------------------------------------|
E|----------------------------------------------------------------------------------------------|

e|----------------------------------------------------------------------------------------------|
B|-3--3-----3-----3-----3--3/7--7-----7-----7--7--7--7-----7--7h8p7--7--7/14------14-----14-----|
G|----------------------------------------------------------------------------------------------|
D|-5-----5-----5-----5-----5/9-----9-----9-----9--7-----7---------------7/14--14-----14---------|
A|----------------------------------------------------------------------------------------------|
E|----------------------------------------------------------------------------------------------|

e|----------------------------------------------------------------------------------------------|
B|-12------12-----12------12--12\7-----7-----7-----7--7-----7-----7h8p7--7-----5-----5-----5----|
G|----------------------------------------------------------------------------------------------|
D|-12--12-----12------12---------7--7-----7-----7-----7--7-----7------------7--7--7-----7-------|
A|----------------------------------------------------------------------------------------------|
E|----------------------------------------------------------------------------------------------|

e|----------------------------------------------------------------------------------------------|
B|-3--3-----3-----3-----3--3/7--7-----7-----7--7--7--7-----7--7h8p7--7-----5-----5-----5--------|
G|----------------------------------------------------------------------------------------------|
D|-5-----5-----5-----5-----5/9-----9-----9-----9--7-----7---------------7-----7-----7-----------|
A|----------------------------------------------------------------------------------------------|
E|----------------------------------------------------------------------------------------------|

[Verse]
e|----------------------------------------------------------------------------------------------|
B|-3--3-----3-----3-----3--3/7--7-----7-----7--7--7--7-----7--7h8p7--7-----5-----5-----7--7--5--|
G|----------------------------------------------------------------------------------------------|
D|-5-----5-----5-----5-----5/9-----9-----9-----9--7-----7---------------7-----7-----7-----------|
A|----------------------------------------------------------------------------------------------|
E|----------------------------------------------------------------------------------------------|

e|----------------------------------------------------------------------------------------------|
B|-3--3-----3-----3-----3--3/7--7-----7-----7--7--7--7-----7--7h8p7--7-----5-----5-----5--------|
G|----------------------------------------------------------------------------------------------|(x3)
D|-5-----5-----5-----5-----5/9-----9-----9-----9--7-----7---------------7-----7-----7-----------|
A|----------------------------------------------------------------------------------------------|
E|----------------------------------------------------------------------------------------------|

[Bridge]
e|----------------------------------------------------------------------------------------------|
B|-12------12-----12-----12--12/15-----15-----15-----15--15\10------10-----10-----10-10/14------|
G|----------------------------------------------------------------------------------------------|
D|-12--12-----12-----12------12/16--16-----16-----16-----16\12--12-----12-----12-----12/16--16--|
A|----------------------------------------------------------------------------------------------|
E|----------------------------------------------------------------------------------------------|
                                                                                                 (x2)
e|----------------------------------------------------------------------------------------------|
B|-14------14-----------------------------------------------------------------------------------|
G|----------------------------------------------------------------------------------------------|
D|-----16---------------------------------------------------------------------------------------|
A|----------------------------------------------------------------------------------------------|
E|----------------------------------------------------------------------------------------------|

[Chorus]
e|----------------------------------------------------------------------------------------------|
B|-5--5-----5-----5-5/7--7-----7-----7--7-----7-----7-----7h8h7--7-----7-----7-----7------------|
G|----------------------------------------------------------------------------------------------|
D|-5-----5-----5----5/7-----7-----7-----7--7-----7-----7------------7-----7-----7---------------|
A|----------------------------------------------------------------------------------------------|
E|----------------------------------------------------------------------------------------------|

e|----------------------------------------------------------------------------------------------|
B|-7--7-----7-----7-----7--7-----7-----5-----7-----7-----7-----7h8p7--7-----5-----5-----5-------|
G|----------------------------------------------------------------------------------------------|
D|-7-----7-----7-----7--------7-----7-----7-----7--7--7-----7------------7-----7-----7----------|
A|----------------------------------------------------------------------------------------------|
E|----------------------------------------------------------------------------------------------|

e|----------------------------------------------------------------------------------------------|
B|-3--3-----3-----3-----3--3/7--7-----7-----7--7--7--7-----7--7h8p7--5-----5-----5-----3--------|
G|----------------------------------------------------------------------------------------------|
D|-5-----5-----5-----5-----5/9-----9-----9-----9--7-----7---------------5-----5-----5-----------|
A|----------------------------------------------------------------------------------------------|
E|----------------------------------------------------------------------------------------------|

e|----------------------------------------------------------------------------------------------|
B|-3--3-----3-----3-----3--3/7--7-----7-----7--7--7--7-----7--7h8p7--7-----5-----5-----5--------|
G|----------------------------------------------------------------------------------------------|
D|-5-----5-----5-----5-----5/9-----9-----9-----9--7-----7---------------7-----7-----7-----------|
A|----------------------------------------------------------------------------------------------|
E|----------------------------------------------------------------------------------------------|

[Outro]
e|----------------------------------------------------------------------------------------------|
B|-3--3-----3-----3-----3--3/7--7-----7-----7--7\5-----5--7-----8-----7-----5-----5-----5-------|
G|----------------------------------------------------------------------------------------------|
D|-5-----5-----5-----5-----5/9-----9-----9-----9\7--7--------7-----7-----7-----7-----7----------|
A|----------------------------------------------------------------------------------------------|
E|----------------------------------------------------------------------------------------------|

e|----------------------------------------------------------------------------------------------|
B|-3--3-----3-----3-----3--3/7--7-----7-----7--7--7--7-----7--7h8p7--7-----5-----5-----5--------|
G|----------------------------------------------------------------------------------------------|
D|-5-----5-----5-----5-----5/9-----9-----9-----9--7-----7---------------7-----7-----7-----------|
A|----------------------------------------------------------------------------------------------|
E|----------------------------------------------------------------------------------------------|

e|----------------------------------------------------------------------------------------------|
B|-7--7-----7-----7-----7--7-----7-----7-----7p5--5-----7-----7-----7h8p7--7-----5-----5-----5--|
G|----------------------------------------------------------------------------------------------|
D|-7-----7-----7-----7--------7-----7-----7----------7--7--7-----7------------7-----7-----7-----|
A|----------------------------------------------------------------------------------------------|
E|----------------------------------------------------------------------------------------------|

e|----------------------------------------------------------------------------------------------|
B|-12------12-----12------12--12\5-----5-----5-----5--7-----7-----7h8p7--7-----5-----5-----5----|
G|----------------------------------------------------------------------------------------------|
D|-12--12-----12------12---------5--5-----5-----5-----7--7-----7------------7--7--7-----7-------|
A|----------------------------------------------------------------------------------------------|
E|----------------------------------------------------------------------------------------------|

e|----------------------------------------------------------------------------------------------|
B|-3--3-----3-----3-----3--3/7--7-----7-----7--7--7--7-----7--7h8p7--7-----5-----5-----5--------|
G|----------------------------------------------------------------------------------------------|
D|-5-----5-----5-----5-----5/9-----9-----9-----9--7-----7---------------7-----7-----7-----------|
A|----------------------------------------------------------------------------------------------|
E|----------------------------------------------------------------------------------------------|

e|----------------------------------------------------------------------------------------------|
B|-12------12-----12------12--12\7-----5-----7-----5--7-----7-----7h8p7--7-----5-----5-----5----|
G|----------------------------------------------------------------------------------------------|
D|-12--12-----12------12---------7--7-----7-----7-----7--7-----7------------7--7--7-----7-------|
A|----------------------------------------------------------------------------------------------|
E|----------------------------------------------------------------------------------------------|

e|----------------------------------------------------------------------------------------------|
B|-3--3-----3-----3-----3--3/7--7-----7-----7--7--7--7-----7--7h8p7--7-----5-----5-----5--3-----|
G|----------------------------------------------------------------------------------------------|
D|-5-----5-----5-----5-----5/9-----9-----9-----9--7-----7---------------7-----7-----7-----5-----|
A|----------------------------------------------------------------------------------------------|
E|----------------------------------------------------------------------------------------------|


************************************

| h   Hammer-on
| p   Pull-off
| /   Slide up
| \   Slide down

************************************
Suggest correction
Creating personal tab
Creating personal tab
You can edit any tab online and save it as your Personal.

You can edit, replace or remove any tab part or add personal notes – all changes will be seen only by you.

Personal tabs can be accessed anytime from any device, even offline.
Learn more »
comments
print report bad tab
1 comment total.
+1 reply
Supperall 10 Jun 06, 2017 11:11 AM

Thank you so much for posting this! You rock dude.

guest
You may want to rate the tab now too:
select rating
Wanna post a correction for this tab? Suggest correction