Oops, an error
Loading. Please wait.

Uptown Folks tab

version 1
version 1

Whole song

  • This is a version that mixes the two guitar parts ... Show more
6,874 views 108 this week
2 commentsread comments
1 2 3 4 5
x 9
add to favorites
×
Save as Personal and add changes to this tab that will be seen only by you. Learn more ›
×
You can save this tab as Personal to edit and correct it or add notes. All changes will be seen only by you. Learn more »
launch autoscroll
font size
0
reset
how to read this tab
guitar tuner
edit
Autoscroll
slow
fast
+/-
esc
set tempo
stop
Author
Difficulty
intermediate
[Intro]

e|---------------------------------------------------------------------------|
B|---------------------------------------------------------------------------|
G|-----4-2-0-4-4-2~~2-0------2-2-2-2-0-2-2-----------------------------------| 
D|-0-0-------4-4--------4-4------------2-2---------0-------------------------|
A|-2-2-------2-2--------4-4------------0-0-4-4-4-4---------------------------|
E|-3-3------------------2-2--------------------------------------------------|
                                                                              x1
e|---------------------------------------------------------------------------|
B|---------------------------------------------------------------------------|
G|-----4-4-2-2-0-4-4-4-4-2-0------------0--2-2-------------------------------|
D|-0-0-----------4-4-4-4----4-4-4-4-4-4----2-2-----2-2-----------------------|
A|-2-2-----------2-2-2-2----4-4-4-4-4-4----0-0-4-4----4----------------------|
E|-3-3----------------------2-2-2-2-2-2--------------------------------------|


[Bridge]

e|---------------------------------------------------------------------------|
B|-12-12-10-10---------------------------------------------------------------|
G|-------------11---11-11-9-9------------------9-----------------------------|
D|----------------------------11---11-11-11-11----11-11-11-11-9--------------|
A|---------------------------------------------------------------------------|
E|---------------------------------------------------------------------------|
                                                                              x2
e|---------------------------------------------------------------------------|
B|---------------------------------------------------------------------------|
G|-----4--2--0--4-4-4-4-4-4-4-4-4-------------2-0-2-2-2-2-2-2-2-2-2-2--------|
D|-0-0----------4-4-4-4-4-4-4-4-4-4-4-4-4-4-4-----2-2-2-2-2-2-2-2-2-2--------|
A|-2-2----------2-2-2-2-2-2-2-2-2-4-4-4-4-4-4-----0-0-0-0-0-0-0-0-0-0--------|
E|-3-3----------------------------2-2-2-2-2-2--------------------------------|


[Verse]
the verses vary but this is the basic idea of each verse
e|---------------------------------------------------------------------------|
B|---------------------------------------------------------------------------|
G|-----4--2--0--4-4-4-4-4-4-4-4-4-------------2-0-2-2-2-2-2-2-2-2-2-2--------| x4
D|-0-0----------4-4-4-4-4-4-4-4-4-4-4-4-4-4-4-----2-2-2-2-2-2-2-2-2-2--------|
A|-2-2----------2-2-2-2-2-2-2-2-2-4-4-4-4-4-4-----0-0-0-0-0-0-0-0-0-0--------|
E|-3-3----------------------------2-2-2-2-2-2--------------------------------|
 

[Chorus]

e|---------------------------------------------------------------------------|
B|-12-12-10-10---------------------------------------------------------------|
G|-------------11---11-11-9-9------------------9-----------------------------|
D|----------------------------11---11-11-11-11----11-11-11-11-9--------------|
A|---------------------------------------------------------------------------|
E|---------------------------------------------------------------------------|
                                                                              x2
e|---------------------------------------------------------------------------|
B|---------------------------------------------------------------------------|
G|-----4--2--0--4-4-4-4-4-4-4-4-4-------------2-0-2-2-2-2-2-2-2-2-2-2--------|
D|-0-0----------4-4-4-4-4-4-4-4-4-4-4-4-4-4-4-----2-2-2-2-2-2-2-2-2-2--------|
A|-2-2----------2-2-2-2-2-2-2-2-2-4-4-4-4-4-4-----0-0-0-0-0-0-0-0-0-0--------|
E|-3-3----------------------------2-2-2-2-2-2--------------------------------|


[Verse]

e|---------------------------------------------------------------------------|
B|---------------------------------------------------------------------------|
G|-----4--2--0--4-4-4-4-4-4-4-4-4-------------2-0-2-2-2-2-2-2-2-2-2-2--------| x4
D|-0-0----------4-4-4-4-4-4-4-4-4-4-4-4-4-4-4-----2-2-2-2-2-2-2-2-2-2--------|
A|-2-2----------2-2-2-2-2-2-2-2-2-4-4-4-4-4-4-----0-0-0-0-0-0-0-0-0-0--------|
E|-3-3----------------------------2-2-2-2-2-2--------------------------------|


[Chorus]

e|---------------------------------------------------------------------------|
B|-12-12-10-10---------------------------------------------------------------|
G|-------------11---11-11-9-9------------------9-----------------------------|
D|----------------------------11---11-11-11-11----11-11-11-11-9--------------|
A|---------------------------------------------------------------------------|
E|---------------------------------------------------------------------------|
                                                                              x2
e|---------------------------------------------------------------------------|
B|---------------------------------------------------------------------------|
G|-----4--2--0--4-4-4-4-4-4-4-4-4-------------2-0-2-2-2-2-2-2-2-2-2-2--------|
D|-0-0----------4-4-4-4-4-4-4-4-4-4-4-4-4-4-4-----2-2-2-2-2-2-2-2-2-2--------|
A|-2-2----------2-2-2-2-2-2-2-2-2-4-4-4-4-4-4-----0-0-0-0-0-0-0-0-0-0--------|
E|-3-3----------------------------2-2-2-2-2-2--------------------------------|


[Breakdown]

   G                               Bm
e|-3-------------------------------2-----------------------------------------|
B|-3-------------------------------3-----------------------------------------|
G|-4-------------------------------4-----------------------------------------|x2
D|-5-------------------------------4-----------------------------------------|
A|-5-------------------------------2-----------------------------------------|
E|-3-------------------------------------------------------------------------|

   G                    Bm                    D                   A
e|-3--------------------2---------------------5-------------------5----------|
B|-3--------------------3---------------------7-------------------5----------|
G|-4--------------------4---------------------7-------------------6----------|x4
D|-5--------------------4---------------------7-------------------7----------|
A|-5--------------------2---------------------5-------------------7----------|
E|-3--------------------------------------------------------------5----------|


[Outro]

e|---------------------------------------------------------------------------|
B|-12-12-10-10---------------------------------------------------------------|
G|-------------11---11-11-9-9------------------9-----------------------------|
D|----------------------------11---11-11-11-11----11-11-11-11-9--------------|
A|---------------------------------------------------------------------------|
E|---------------------------------------------------------------------------|
                                                                              x4
e|---------------------------------------------------------------------------|
B|---------------------------------------------------------------------------|
G|-----4--2--0--4-4-4-4-4-4-4-4-4-------------2-0-2-2-2-2-2-2-2-2-2-2--------|
D|-0-0----------4-4-4-4-4-4-4-4-4-4-4-4-4-4-4-----2-2-2-2-2-2-2-2-2-2--------|
A|-2-2----------2-2-2-2-2-2-2-2-2-4-4-4-4-4-4-----0-0-0-0-0-0-0-0-0-0--------|
E|-3-3----------------------------2-2-2-2-2-2--------------------------------|

************************************

| x  Dead note
| ~  Vibrato

************************************

            
            
Suggest correction
Creating personal tab
Creating personal tab
You can edit any tab online and save it as your Personal.

You can edit, replace or remove any tab part or add personal notes – all changes will be seen only by you.

Personal tabs can be accessed anytime from any device, even offline.
Learn more »
comments
print report bad tab
2 comments total.
+1 reply
shelbyje.an 52 Mar 14, 2017 05:45 AM

bridge / chorus is heaps easier if you play it as
e|---------------------------------------------------------------------|
B|-12-12-10-10 --------------------------------------------------------|
G|-------------11-11---11-11-9-9--------------------9------------------|
D|-------------------------------11-11---11-11-11-11----11-11-11-11-9--|
A|---------------------------------------------------------------------|
E|---------------------------------------------------------------------|

guest
You may want to rate the tab now too:
select rating
Wanna post a correction for this tab? Suggest correction