Oops, an error
Loading. Please wait.

Uptown Folks Tab

version 1
version 1

Whole song

  • ver 2 new
    This is a version that mixes the two guitar parts ... Show more
1,015 views 99 this week
no commentswrite comment
1 2 3 4 5
x 4
add to favorites
launch autoscroll
font size
0
reset
how to read this tab
guitar tuner
Autoscroll
slow
fast
+/-
esc
set tempo
stop
Help us to improve Ultimate-Guitar.com Take our survey!
×
Author
Difficulty
intermediate
[Intro]

e|---------------------------------------------------------------------------|
B|---------------------------------------------------------------------------|
G|-----4-2-0-4-4-2~~2-0------2-2-2-2-0-2-2-----------------------------------| 
D|-0-0-------4-4--------4-4------------2-2---------0-------------------------|
A|-2-2-------2-2--------4-4------------0-0-4-4-4-4---------------------------|
E|-3-3------------------2-2--------------------------------------------------|
                                                                              x1
e|---------------------------------------------------------------------------|
B|---------------------------------------------------------------------------|
G|-----4-4-2-2-0-4-4-4-4-2-0------------0--2-2-------------------------------|
D|-0-0-----------4-4-4-4----4-4-4-4-4-4----2-2-----2-2-----------------------|
A|-2-2-----------2-2-2-2----4-4-4-4-4-4----0-0-4-4----4----------------------|
E|-3-3----------------------2-2-2-2-2-2--------------------------------------|


[Bridge]

e|---------------------------------------------------------------------------|
B|-12-12---------------------------------------------------------------------|
G|------14-14-11-------------------------------------------------------------|
D|-----------------16-16-14-14-11-----11-11-11-11-14--11-11-11-11-9----------|
A|---------------------------------------------------------------------------|
E|---------------------------------------------------------------------------|
                                                                              x2
e|---------------------------------------------------------------------------|
B|---------------------------------------------------------------------------|
G|-----4--2--0--4-4-4-4-4-4-4-4-4-------------2-0-2-2-2-2-2-2-2-2-2-2--------|
D|-0-0----------4-4-4-4-4-4-4-4-4-4-4-4-4-4-4-----2-2-2-2-2-2-2-2-2-2--------|
A|-2-2----------2-2-2-2-2-2-2-2-2-4-4-4-4-4-4-----0-0-0-0-0-0-0-0-0-0--------|
E|-3-3----------------------------2-2-2-2-2-2--------------------------------|


[Verse]
the verses vary but this is the basic idea of each verse
e|---------------------------------------------------------------------------|
B|---------------------------------------------------------------------------|
G|-----4--2--0--4-4-4-4-4-4-4-4-4-------------2-0-2-2-2-2-2-2-2-2-2-2--------| x4
D|-0-0----------4-4-4-4-4-4-4-4-4-4-4-4-4-4-4-----2-2-2-2-2-2-2-2-2-2--------|
A|-2-2----------2-2-2-2-2-2-2-2-2-4-4-4-4-4-4-----0-0-0-0-0-0-0-0-0-0--------|
E|-3-3----------------------------2-2-2-2-2-2--------------------------------|
 

[Chorus]

e|---------------------------------------------------------------------------|
B|-12-12---------------------------------------------------------------------|
G|------14-14-11-------------------------------------------------------------|
D|-----------------16-16-14-14-11-----11-11-11-11-14--11-11-11-11-9----------|
A|---------------------------------------------------------------------------|
E|---------------------------------------------------------------------------|
                                                                              x2
e|---------------------------------------------------------------------------|
B|---------------------------------------------------------------------------|
G|-----4--2--0--4-4-4-4-4-4-4-4-4-------------2-0-2-2-2-2-2-2-2-2-2-2--------|
D|-0-0----------4-4-4-4-4-4-4-4-4-4-4-4-4-4-4-----2-2-2-2-2-2-2-2-2-2--------|
A|-2-2----------2-2-2-2-2-2-2-2-2-4-4-4-4-4-4-----0-0-0-0-0-0-0-0-0-0--------|
E|-3-3----------------------------2-2-2-2-2-2--------------------------------|


[Verse]

e|---------------------------------------------------------------------------|
B|---------------------------------------------------------------------------|
G|-----4--2--0--4-4-4-4-4-4-4-4-4-------------2-0-2-2-2-2-2-2-2-2-2-2--------| x4
D|-0-0----------4-4-4-4-4-4-4-4-4-4-4-4-4-4-4-----2-2-2-2-2-2-2-2-2-2--------|
A|-2-2----------2-2-2-2-2-2-2-2-2-4-4-4-4-4-4-----0-0-0-0-0-0-0-0-0-0--------|
E|-3-3----------------------------2-2-2-2-2-2--------------------------------|


[Chorus]

e|---------------------------------------------------------------------------|
B|-12-12---------------------------------------------------------------------|
G|------14-14-11-------------------------------------------------------------|
D|-----------------16-16-14-14-11-----11-11-11-11-14--11-11-11-11-9----------|
A|---------------------------------------------------------------------------|
E|---------------------------------------------------------------------------|
                                                                              x2
e|---------------------------------------------------------------------------|
B|---------------------------------------------------------------------------|
G|-----4--2--0--4-4-4-4-4-4-4-4-4-------------2-0-2-2-2-2-2-2-2-2-2-2--------|
D|-0-0----------4-4-4-4-4-4-4-4-4-4-4-4-4-4-4-----2-2-2-2-2-2-2-2-2-2--------|
A|-2-2----------2-2-2-2-2-2-2-2-2-4-4-4-4-4-4-----0-0-0-0-0-0-0-0-0-0--------|
E|-3-3----------------------------2-2-2-2-2-2--------------------------------|


[Breakdown]

   G                               Bm
e|-3-------------------------------2-----------------------------------------|
B|-3-------------------------------3-----------------------------------------|
G|-4-------------------------------4-----------------------------------------|x2
D|-5-------------------------------4-----------------------------------------|
A|-5-------------------------------2-----------------------------------------|
E|-3-------------------------------------------------------------------------|

   G                    Bm                    D                   A
e|-3--------------------2---------------------5-------------------5----------|
B|-3--------------------3---------------------7-------------------5----------|
G|-4--------------------4---------------------7-------------------6----------|x4
D|-5--------------------4---------------------7-------------------7----------|
A|-5--------------------2---------------------5-------------------7----------|
E|-3--------------------------------------------------------------5----------|

[Outro]

e|---------------------------------------------------------------------------|
B|-12-12---------------------------------------------------------------------|
G|------14-14-11-------------------------------------------------------------|
D|-----------------16-16-14-14-11-----11-11-11-11-14--11-11-11-11-9----------|
A|---------------------------------------------------------------------------|
E|---------------------------------------------------------------------------|
                                                                              x4
e|---------------------------------------------------------------------------|
B|---------------------------------------------------------------------------|
G|-----4--2--0--4-4-4-4-4-4-4-4-4-------------2-0-2-2-2-2-2-2-2-2-2-2--------|
D|-0-0----------4-4-4-4-4-4-4-4-4-4-4-4-4-4-4-----2-2-2-2-2-2-2-2-2-2--------|
A|-2-2----------2-2-2-2-2-2-2-2-2-4-4-4-4-4-4-----0-0-0-0-0-0-0-0-0-0--------|
E|-3-3----------------------------2-2-2-2-2-2--------------------------------|

************************************

| x  Dead note
| ~  Vibrato

************************************
Suggest correction
There is a new version of this tab from 4 days ago which you may like more. Go check it out:
comments
print report bad tab
guest
You may want to rate the tab now too:
select rating
Wanna post a correction for this tab? Suggest correction