Oops, an error
Loading. Please wait.

Uptown Folks Tab

version 2
version 2

Whole song

  • This is a version that mixes the two guitar parts ... Show more
10 views 3 this week
no commentswrite comment
1 2 3 4 5
3 more votes to show rating
add to favorites
launch autoscroll
font size
0
reset
how to read this tab
guitar tuner
Autoscroll
slow
fast
+/-
esc
set tempo
stop
Help us to improve Ultimate-Guitar.com Take our survey!
×
Author
Difficulty
intermediate
About this tab version
This is a version that mixes the two guitar parts together so you can play them both at the same time :) I have no idea about the lyrics I tried my best to figure them out as they arent online. Was this info helpful? Yes No
[Intro]
    G.                 Bm.               Dmaj7.   A/C# 
e|--3--3--7--7\5--5---2--2--2--2-0--0----2--2--0--------0--------------------|
B|--3--3--7--7\5--5---3--3--3--3\2--2----2--2--0--2--2--2--2-----------------|
G|--4--4--------------4--4---------------2--2--0--2--2--2--2-----------------|  x2
D|--5--5--------------4--4---------------4--4-----2--2-----2-----------------|
A|--5--5--------------2--2---------------5--5-----4--4-----4-----------------|
E|--3--3---------------------------------------------------------------------|

[Verse]
    G                 Bm.                        Dmaj7.          A/C# 
e|---------------------------------------------------------------------------|
B|---------------------------------------------------------------------------|
G|---------------------------------------------------------------------------| x4
D|---------------------------------------------------------------------------|
A|---------------------------------------------------------------------------|
E|---------------------------------------------------------------------------|
Drinks and the,       the judges,               mad lies,     pay very well
We don't really hear, till we've found a way,   a way to die, a way to die
Talking emptiness,    into the air,             bone silence and religion
My loneliness,        my refuge,                uptown folks, pay very well 

[Chorus]
    G.                 Bm.               Dmaj7.        A/C# 
e|--3--3--7--7\5--5---2--2--2--2-0--0----2--2--0--------0--------------------|
B|--3--3--7--7\5--5---3--3--3--3\2--2----2--2--0--2--2--2--2-----------------|
G|--4--4--------------4--4---------------2--2--0--2--2--2--2-----------------|  x2
D|--5--5--------------4--4---------------4--4-----2--2-----2-----------------|
A|--5--5--------------2--2---------------5--5-----4--4-----4-----------------|
E|--3--3---------------------------------------------------------------------|

indeed.                                  Uptown folks, pay very well 
indeed. 

[Verse]
    G                 Bm.                        Dmaj7.          A/C# 
e|---------------------------------------------------------------------------|
B|---------------------------------------------------------------------------|
G|---------------------------------------------------------------------------| x4
D|---------------------------------------------------------------------------|
A|---------------------------------------------------------------------------|
E|---------------------------------------------------------------------------|

Back to the,        the garden,          where the lovers walk, the lovers walk.
Don't shot put,     for practice,        your place is here, in the world 
Delirium,           delirium,            maybe it's just,     cold outside,
Crooked poems,      show we can't speak, uptown folks,        pay very well 

[Chorus]
    G.                 Bm.               Dmaj7.        A/C# 
e|--3--3--7--7\5--5---2--2--2--2-0--0----2--2--0--------0--------------------|
B|--3--3--7--7\5--5---3--3--3--3\2--2----2--2--0--2--2--2--2-----------------|
G|--4--4--------------4--4---------------2--2--0--2--2--2--2-----------------|  x2
D|--5--5--------------4--4---------------4--4-----2--2-----2-----------------|
A|--5--5--------------2--2---------------5--5-----4--4-----4-----------------|
E|--3--3---------------------------------------------------------------------|

indeed.                                  Uptown folks, pay very well 
indeed. 

[Bridge]
      G.                                      Bm 
e|---------------------------------------------------------------------------|
B|---------------------------------------------------------------------------|
G|---------------------------------------------------------------------------|
D|---------------------------------------------------------------------------| x6
A|---------------------------------------------------------------------------|
E|---------------------------------------------------------------------------|
   Back to the, the garden.                  Back to the garden we will go 

    G                 Bm.                        Dmaj7.          A/C# 
e|---------------------------------------------------------------------------|
B|---------------------------------------------------------------------------|
G|---------------------------------------------------------------------------| x2
D|---------------------------------------------------------------------------|
A|---------------------------------------------------------------------------|
E|---------------------------------------------------------------------------|

[Outro]
    G                 Bm.                        Dmaj7.          A/C# 
e|---------------------------------------------------------------------------|
B|---------------------------------------------------------------------------|
G|---------------------------------------------------------------------------| x7
D|---------------------------------------------------------------------------|
A|---------------------------------------------------------------------------|
E|---------------------------------------------------------------------------|
                                               Uptown folks,     Pay very well 

e|--12--12--10--10------10--10------------------------------------------------------|
B|------------------11----------11--11----------------------------------------------|
G|--------------------------------------9------------------9------------------------|
D|-----------------------------------------11--11--11--11-----11--11--11--11--11--9-|
A|----------------------------------------------------------------------------------|
E|----------------------------------------------------------------------------------|

e|--12--12--10--10------------------------------------------------------------------|
B|------------------11--11--11--11--11----------------------------------------------|
G|--------------------------------------9------------------9------------------------|
D|-----------------------------------------11--11--11--11-----11--11--11--11--11--9-|
A|----------------------------------------------------------------------------------|    x2
E|----------------------------------------------------------------------------------|

************************************

| \  Slide down

************************************
Suggest correction
Give kudos to tab author, rate the tab!
1 2 3 4 5
comments
print report bad tab
guest
You may want to rate the tab now too:
select rating
Wanna post a correction for this tab? Suggest correction