Oops, an error
Loading. Please wait.

Dry Hitter tab

version 1
version 1

Whole song

769 views 6 this week
2 commentsread comments
1 2 3 4 5
2 more votes to show rating
add to favorites
×
Save as Personal and add changes to this tab that will be seen only by you. Learn more ›
×
You can save this tab as Personal to edit and correct it or add notes. All changes will be seen only by you. Learn more »
launch autoscroll
font size
0
reset
how to read this tab
guitar tuner
edit
Autoscroll
slow
fast
+/-
esc
set tempo
stop
-------------------------------------------------------------------------------
                             Dry Hitter - Dopethrone
-------------------------------------------------------------------------------
Tabbed by: Chris
Tuning: B-Standard: B E A D F# B

Intro 
6x Riff 1

Main part
4x Riff 1
2x Riff 2a+b
4x Riff 1
2x Riff 2a+b

3x open C
Bass and drums only

Main Part again and end on a couple of open C.

Riff 1:
B |----------------------------------------------------------------------------|
F#|----------------------------------------------------------------------------|
D |----------------------------------------------------------------------------|
A |----------------------------------------------------------------------------|
E |-------8-7-7-----10-10-8-----5-7-7------------------------------------------|
B |0-0-0---------0-0--------0-0------------------------------------------------|

Riff 2a:
B |----------------------------------------------------------------------------|
F#|----------------------------------------------------------------------------|
D |----------------------------------------------------------------------------|
A |----------------------------------------------------------------------------|
E |-------7-8-8\5-5-5--5-7-7-5-7-7---------------------------------------------|
B |0-0-0-----------------------------------------------------------------------|

Riff 2b:
B |----------------------------------------------------------------------------|
F#|----------------------------------------------------------------------------|
D |----------------------------------------------------------------------------|
A |----------------------------------------------------------------------------|
E |-------7-8-8\5-5-5--5/10-10-10-10-------------------------------------------|
B |0-0-0-----------------------------------------------------------------------|


************************************

| /   slide up
| \   slide down
| h   hammer-on
| p   pull-off
| ~   vibrato
| +   harmonic
| x   Mute note
| b   Bend
| pb  Pre-bend
| br  Bend release
| pbr Pre-bend release
| brb Bend release bend

************************************

            
            
Suggest correction
Creating personal tab
Creating personal tab
You can edit any tab online and save it as your Personal.

You can edit, replace or remove any tab part or add personal notes – all changes will be seen only by you.

Personal tabs can be accessed anytime from any device, even offline.
Learn more »
Give kudos to tab author, rate the tab!
1 2 3 4 5
comments
print report bad tab
2 comments total.
0 reply
MetalVamptress 351 Dec 20, 2015 05:08 PM

This tab isn't accurate. That's all. It's a easy song so it shouldn't have been that hard to tab correctly.

0 reply
MetalVamptress 351 Dec 20, 2015 05:08 PM

A bit off dude..

guest
You may want to rate the tab now too:
select rating
Wanna post a correction for this tab? Suggest correction