Oops, an error
Loading. Please wait.

Sludgekicker Tab

67 views 3 this week
no commentswrite comment
1 2 3 4 5
3 more votes to show rating
add to favorites
launch autoscroll
font size
0
reset
how to read this tab
guitar tuner
Autoscroll
slow
fast
+/-
esc
set tempo
stop
Help us to improve Ultimate-Guitar.com Take our survey!
×
Author
Difficulty
Tuning
novice
B E A D F# B
[Intro]

B |---------------------------------------------------------------------------|
F#|---------------------------------------------------------------------------|
D |---------------------------------------------------------------------------|
A |---------------------------------------------------------------------------|
E |--------------------7p6-6-6/7-7-7/9-9-9-10---------------------------------|
B |-0-0-0--6p5-5\3--0---------------------------------------------------------|
        PM          PM

B |---------------------------------------------------------------------------|
F#|---------------------------------------------------------------------------|
D |---------------------------------------------------------------------------|
A |---------------------------------------------------------------------------|
E |---------------------------------------------------------------------------|
B |-0-0-0--6p5-5\3--0---8p7-7-7p6-6-6\3-3/6-----------------------------------|
        PM          PM

[Verse] x 2

B |---------------------------------------------------------------------------|
F#|---------------------------------------------------------------------------|
D |---------------------------------------------------------------------------|
A |---------------------9\8-8--8/9-9--9/11-11--11-12--------------------------|
E |-2-2----8\7--7-5-----7\6-6--6/7-7--7/9--9---9--10--------------------------|
B |-0-0-0--6\5--5-3--0--------------------------------------------------------|
        PM           PM   

B |---------------------------------------------------------------------------|
F#|---------------------------------------------------------------------------|
D |---------------------------------------------------------------------------|
A |---------------------------------------------------------------------------|
E |-2-2----8\7--7-5-----10\9-9--9\8-8--8-5-5/8-8------------------------------|
B |-0-0-0--6\5--5-3--0--8-\7-7--7\6-6--6-3-3/6-6------------------------------|
        PM           PM

[Chorus] x 2

B |---------------------------------------------------------------------------|
F#|---------------------------------------------------------------------------|
D |---------------------------------------------------------------------------|
A |-2-----------5-----------7------12-11/12---2-------------------------------|
E |-2------5h7--5------5h7--7------10-9-/10---2-------------------------------|
B |-0-----------3-----------5-----------------0-------------------------------|

B |---------------------------------------------------------------------------|
F#|---------------------------------------------------------------------------|
D |---------------------------------------------------------------------------|
A |-2-----------5-----------7------12-12\-11---2------------------------------|
E |-2------5h7--5------5h7--7------10-10\-9----2------------------------------|
B |-0-----------3-----------5------------------0------------------------------|



[Verse] x 2

B |---------------------------------------------------------------------------|
F#|---------------------------------------------------------------------------|
D |---------------------------------------------------------------------------|
A |---------------------9\8-8--8/9-9--9/11-11--11-12--------------------------|
E |-2-2----8\7--7-5-----7\6-6--6/7-7--7/9--9---9--10--------------------------|
B |-0-0-0--6\5--5-3--0--------------------------------------------------------|
        PM           PM   

B |---------------------------------------------------------------------------|
F#|---------------------------------------------------------------------------|
D |---------------------------------------------------------------------------|
A |---------------------------------------------------------------------------|
E |-2-2----8\7--7-5-----10\9-9--9\8-8--8-5-5/8-8------------------------------|
B |-0-0-0--6\5--5-3--0--8-\7-7--7\6-6--6-3-3/6-6------------------------------|
        PM           PM

[Chorus] x 2

B |---------------------------------------------------------------------------|
F#|---------------------------------------------------------------------------|
D |---------------------------------------------------------------------------|
A |-2-----------5-----------7------12-11/12---2-------------------------------|
E |-2------5h7--5------5h7--7------10-9-/10---2-------------------------------|
B |-0-----------3-----------5-----------------0-------------------------------|

B |---------------------------------------------------------------------------|
F#|---------------------------------------------------------------------------|
D |---------------------------------------------------------------------------|
A |-2-----------5-----------7------12-12\-11---2------------------------------|
E |-2------5h7--5------5h7--7------10-10\-9----2------------------------------|
B |-0-----------3-----------5------------------0------------------------------|

[Outro]

B |---------------------------------------------------------------------------|
F#|---------------------------------------------------------------------------|
D |---------------------------------------------------------------------------|
A |--2------------------------------------------------------------------------|
E |--2------------------------------------------------------------------------|
B |--0------------------------------------------------------------------------|


Rate & Comment!
************************************

| h   Hammer-on
| p   Pull-off
| /   Slide up
| \   Slide down
| PM  Palm mute


************************************
Suggest correction
Give kudos to tab author, rate the tab!
1 2 3 4 5
comments
print report bad tab
guest
You may want to rate the tab now too:
select rating
Wanna post a correction for this tab? Suggest correction