Oops, an error
Loading. Please wait.

Doraemon Tab

version 1
version 1

Whole song

Interactive

167,319 views 192 this week
1 commentread comment
1 2 3 4 5
x 4
add to favorites
launch autoscroll
font size
0
reset
how to read this tab
guitar tuner
Autoscroll
slow
fast
+/-
esc
set tempo
stop
Help us to improve Ultimate-Guitar.com Take our survey!
×
Author
Difficulty
advanced
Doraemon played in the key of D.

E|10-9-7-----7-910---9-7-----7-910|---9-7-----7-910---9-7--------12|
B|------10--------------10--------|------10--------------10--------|
G|--------------------------------|--------------------------------|
D|-0-----------------------0------|---------------0----------------|
A|--------------------------------|--------------------------------|
E|--------------------------------|-------------------------------0|

E|--10-9-----910--1210-9-----910--|1210-9-----910-9--101112--------|
B|--------12--------------12------|--------12--------------------12|
G|--------------------------------|------------------------------11|
D|--------------------------------|--------------------------------|
A|--------------------------------|-----------------0------------10|
E|-------------------------0------|--------------------------------|

E|---910-------7---------9-----5--|-----7-----2-3-------5-------2--|
B|-------8--10--10--12---7---8----|-810-----5-------7-8-----3-5-3--|
G|-------7---7---9-------6--------|-7-9-----4-------6-------2------|
D|---------9----11----------------|-----------------7-------4------|
A|---------7-----9-------5--------|-7-------4-------5-------2------|
E|--------------------------------|--------------------------------|

E|121110-9------------------------|--------------------------------|
B|----------1312--1110------------|--------------------------------|
G|--------------------13--121110-9|-------------------------------2|
D|--------------------------------|-------------------------------4|
A|-0------------------------------|-------0-------0-----0-2-----4-5|
E|--------------------------------|--------------------------------|

E|-------------2-7-------5-------5|-----7-5------------------------|
B|-----3-3-------7-----7-7-------7|-----7-7-----7-8-----7---5------|
G|-------2-------7-----7-------7-6|-----6-6-----6-7-----7-6--------|
D|-------2-------------7----------|---------------5-----5---5---5--|
A|-------4-----------------------5|-----------------7--------------|
E|---------------7-------5--------|---------5---------------5------|

E|---------------9-----9---7------|-------------------------------0|
B|-------------8---5---5---8--10--|-8-------8---7-0-----2-------3-0|
G|-----9---9-------6---6---7---7--|-7-------7---7-0-----2-------2--|
D|-9---------------------------9--|-9---9---7---7-0-----2-------2--|
A|-7-----7-----------------7------|10------------------------------|
E|-----------------5--------------|---------7-------3-------2------|

E|-----0--------------------------|-------------2-7-------5-------5|
B|-----0--------------------------|-----3-3-------7-----7-7-------7|
G|-0---0-------0-2-----2---0---2-2|-------2-------7-----7-------7-6|
D|-------------0---2---2---0---2-4|-------2-------------7----------|
A|---------0-------0---0---2---4-5|-------4-----------------------5|
E|-0------------------------------|---------------7-------5--------|

E|-----7-5------------------------|-----------------9-------7---5--|
B|-----7-7-----7-8-----7---5------|-------5-----8---8-------5---5--|
G|-----6-6-----6-7-----7-6--------|-----9-6---------9---9---6---6--|
D|---------------5-----5---5---5-9|-------5------------------------|
A|-----------------7--------------|-7---------------7--------------|
E|---------5---------------5------|-------5-----------------5------|

E|--------------------------------|-------------------------------7|
B|-8-------7---5---------5--------|-3-----------------------------3|
G|-7-------6---6---6-------6------|-2-----------2---0-----2--------|
D|-----5---5---5-------5-------5--|-4---4-------4---0---0-2-----2--|
A|-7---------------7--------------|-5-----5------------------------|
E|---------5---------------5------|-----------------0-----2-------3|

E|-------7-----5-------7---------0|-----2-4-------5---------------7|
B|-------3-----3-8--10--10-------3|-----3-5-----5-5----------------|
G|-----4-------4-7---7---7-----7-1|-----1-7-----7-6-------------6--|
D|-----------------0-----0--------|-------------6-------5-------5--|
A|--------------------------------|--------------------------------|
E|---------3---------------------0|-------0-------5---------5------|

E|-------5---------3--------------|---------9---7-5-----7-5--------|
B|-3-----3---------3--------------|-5-------5---5-5-----5-5-----8--|
G|-4---4-------4-------4-------4--|-6-----------6-6-----6-6-----6--|
D|--------------------------------|-----5-----------------------5--|
A|--------------------------------|--------------------------------|
E|-3-------3-------3-------3------|-5-------5-------5-------5---5-5|

E|-------5-----7------------------|--------------------------------|
B|---------------7-----------5---3|-------------------------------3|
G|-------------------------------2|-------------2-------2-------2-2|
D|-------------------------------4|-----4-------4-------4-------4-4|
A|--------------------------------|-5-------------5---------------5|
E|--------------------------------|-------5---------------5--------|

E|--------------------------------|-------------------------------0|
B|-----3-2-----2------------------|-------2-----2-3-----3-3---2-3-0|
G|-----2-2-----2---4---4-2-----2--|-4---4---2---2-2-----2-2---2-2-1|
D|-----4-2-----2---4---4-2-----2--|-4---4---2---2-4-----4-2---2-2--|
A|-----------------5--------------|-5-------------5----------------|
E|---------5---------------5------|---------5-------------5--------|

E|---------------0----------------|-----------------0--------------|
B|-----0-0-------0-----0---0-----0|-----2-3-----0---0-------------3|
G|-----1-1-------1-----1-1-------1|-------1---------0---0-------2-2|
D|-----0-0-----0-------0-0-----0-0|-------0-------------0-------2-4|
A|-------2---------------2--------|-------2---------------0-------5|
E|-0---------------0-------------0|-----------------0--------------|

E|-------------------------------2|-----2-2-----2---3--------------|
B|-----3-2-----2-----------------3|-----3-3---5-3---3-----------3--|
G|-----2-2-----2-4-----4-2-----2-2|-----2-2---2-2---4-----------2--|
D|-----4-2-----2-4-----4-2-----2--|-----------4---------5-------2--|
A|---------------5---------------5|-------------------------2------|
E|---------5-------------5--------|---------2-------3--------------|

E|--------------------------------|--------------------------------|
B|-0-------0---3-2-----3-5--------|-0-----0-----3-2-----3-5-----3--|
G|-0-------2---2-4-----4-4--------|-0-------0-----2-----2-6-----2--|
D|-----0---2---2-4-----4-4-----4--|-----0---0-----2-----2-5-----4--|
A|--------------------------------|-0-----2-------4---------6---5--|
E|-0-------2-----3-------4--------|--------------------------------|

E|--------------------------------|--------------------------------|
B|-----------------3--------------|--------------------------------|
G|-----------------2--------------|--------------------------------|
D|-----------------4--------------|--------------------------------|
A|-----------------5--------------|--------------------------------|
E|--------------------------------|--------------------------------|
Suggest correction
comments
print report bad tab
1 comment total.
0 reply
kenz.94 10 May 29, 2011 12:11 PM

are u sure this is playable??Play it in the key of A or D like the power tabs is easier..Personally i play in A..This tab is way too hard........Someone can transpose it to the key of G, C, or A???

guest
You may want to rate the tab now too:
select rating
Wanna post a correction for this tab? Suggest correction