Oops, an error
Loading. Please wait.

All tab

version 1
version 1

Whole song

Interactive

by Dorje
5,605 views 33 this week
5 commentsread comments
1 2 3 4 5
x 13
add to favorites
×
Save as Personal and add changes to this tab that will be seen only by you. Learn more ›
×
You can save this tab as Personal to edit and correct it or add notes. All changes will be seen only by you. Learn more »
launch autoscroll
font size
0
reset
how to read this tab
guitar tuner
edit
Autoscroll
slow
fast
+/-
esc
set tempo
stop
All - Dorje
Tuning: Drop C#, from low to high: C# G# C# F# A# D#

[Intro]
(Cleanish)(hint of distortion, I play it with distortion on but volume knob down low)
D#|---------5---------------------------------5----------------------8--------| \
A#|-----8-----8------------------3--------8-----8--------------11------11-----|  \
F#|---7---7-----7--------------2---2----7---7-----7---------10----10------10--|   \Repeat
C#|-5------------------3-3\1-0--------5--------------5-5\8--------------------|   /  x2
G#|-5------------------3-3\1-0--------5--------------5-5\8--------------------|  /
C#|-5------------------3-3\1-0--------5--------------5-5\8--------------------| /
    
D#|---------------------------------------------------------------------------|
A#|---------------------------------------------------------------------------|
F#|--------------------0-------(7)--------------------0-----------------------| 
C#|-0h3-3-xx-3/5-0---4---4--(7)----0h3-3-xx-3/5-0---4---4-0-7h8p7p0-----------| 
G#|-0h3-3-xx-3/5-0-5---------------0h3-3-xx-3/5-0-5---------------------------|
C#|-0h3-3-xx-3/5-0---------(7)-----0h3-3-xx-3/5-0-----------------------------|

D#|---------------------8-----------------------------------------------------|
A#|---------------------11----------------------------------------------------|
F#|---------------------10----------------------------------------------------|
C#|-0h3-3-xx-3\1-1-0--8-8--8/12-10-5-7-8-7-0----------------------------------|
G#|-0h3-3-xx-3\1-1-0--8-8--8/12-10-5-7-8-7-0--12-12-12/13-13-13/17-17-17\16~--|
C#|-0h3-3-xx-3\1-1-0--8-8--8/12-10-5-7-8-7-0--12-12-12/13-13-13/17-17-17\16~--|

[Verse]
D#|---------------------------------------------------------------------------|
A#|---------------------------------------------------------------------------|
F#|--------------------0-------(7)--------------------------------------------| 
C#|-0h3-3-xx-3/5-0---4---4--(7)----0h3-3-xx-3/5-0---4-5-4-0-7h8p7p0-----------| 
G#|-0h3-3-xx-3/5-0-5---------------0h3-3-xx-3/5-0-5---------------------------|
C#|-0h3-3-xx-3/5-0---------(7)-----0h3-3-xx-3/5-0-----------------------------|

D#|---------------------8-----------------------------------------------------|
A#|---------------------11----------------------------------------------------|  Entire verse part x2
F#|---------------------10----------------------------------------------------|
C#|-0h3-3-xx-3\1-1-0--8-8--8/12-10-5-7-8-7------------------------------------|
G#|-0h3-3-xx-3\1-1-0--8-8--8/12-10-5-7-8-7------------------------------------|
C#|-0h3-3-xx-3\1-1-0--8-8--8/12-10-5-7-8-7------------------------------------|

[Pre-chorus]
D#|---------12----------------10-------------5-----------5--------------------|
A#|---15-------15-------13-------13------8-----8-----8-----8------------------|
F#|-14---14-------14--12---12-------12--7--7-----7--7--7-----7----------------| Play this x2, on last add:
C#|-12----------------10----------------5-----------5-------------------------|
G#|-12----------------10----------------5-----------5-------------------------|
C#|-12----------------10----------------5-----------5-------------------------|

D#|---------------------------------------------------------------------------|
A#|---------------------------------------------------------------------------|
F#|---------------------------------------------------------------------------|
C#|-5--5--5--5--5-------------------------------------------------------------|
G#|-5--5--5--5--5-------------------------------------------------------------|
C#|-5--5--5--5--5-------------------------------------------------------------|
    P  P  P  P  P
(Chorus (Turn up volume knob to max, I recommend doing this while palm muting in the Pre-chorus)
The chorus is quite annoying to tab, I can't tell exactly what is being played, so I will leave it to your
personal preferences to choose if you want to do the arpeggios like in the intro or do the chords with a
bit of muting here and there, but here is the basic way of playing it, if you want to you can also add in
the slides used in the intro going up to 12 then to 10, then the 5-7-8-7 in-between repeats, sounds kinda
cool.)

D#|-5--------0------3----------------5--------8-----|R|-10-------------------|
A#|-6--------3------6----------------6--------11----|E|-13-------------------|
F#|-7--------2------5----------------7--------10----|P|-12-------------------|
C#|-5----3-3\0------3----------------5--5-5/8-8-----|E|-10-------------------|
G#|-5----3-3\0------3----------------5--5-5/8-8-----|A|-10-------------------|
C#|-5----3-3\0------3----------------5--5-5/8-8-----|T|-10-------------------|
     |        |      |                                   |
(Repeat strumming,   (This is a bit                      (Last time you can add this)
listen to song      of a guess, but
for timing)          if you think it
                    sounds wrong let
                    me know in the comments)

[Verse]
(Pre-chorus is the same apart from the final repeat goes like this)
D#|---------12--------10------------------------------------------------------|
A#|---15-------15-----13------------------------------------------------------|
F#|-14---14-------14--12------------------------------------------------------|
C#|-12----------------10------------------------------------------------------|
G#|-12----------------10------------------------------------------------------|
C#|-12----------------10------------------------------------------------------|
                      |
            (Let this ring out)

Breakdown (go back to intro volume to start with)
This is where the fun really starts, start of quiet, palm muting the one string then gradually work your
way up to get the big loud full power chords, I recommend listening to the song while learning this to get
the timing right.

    (All Palm Muted)
D#|---------------------------------------------------------------------------|
A#|---------------------------------------------------------------------------|
F#|---------------------------------------------------------------------------|
C#|---------------------------------------------------------------------------|x4
G#|---------------------------------------------------------------------------|
C#|-0-0-0-1-1-1-4-4-4-5-5-5-5-8-5-5-4-4-4-7-4-3-3-3---------------------------|

   (Still Palm Muted)
D#|---------------------------------------------------------------------------|
A#|---------------------------------------------------------------------------|
F#|---------------------------------------------------------------------------|Play this bit
C#|---------------------------------------------------------------------------|x2
G#|-0-0-0-1-1-1-4-4-4-5-5-5-5-8-5-5-4-4-4-7-4-3-3-3---------------------------|
C#|-0-0-0-1-1-1-4-4-4-5-5-5-5-8-5-5-4-4-4-7-4-3-3-3---------------------------|

(Now go max volume and rock out! (Listen to the song while learning, the timing is a bit weird for emphasis
on certain power chords)
(With this last bit, I play the power chord on 3, but in the
song there is a pinch squeal, I am not sure where this is
played, I am presuming the 3rd fret but it doesn't really
sound right to me, if you know please let me know in the
comments.)
D#|---------------------------------------------------------------------------|
A#|---------------------------------------------------------------------------|
F#|---------------------------------------------------------------------------|Play this bit
C#|-0----1-----4-----5-----5-8-5--4-4-7-4--3~---------------------------------|x4
G#|-0----1-----4-----5-----5-8-5--4-4-7-4--3~---------------------------------|
C#|-0----1-----4-----5-----5-8-5--4-4-7-4--3~---------------------------------|

(This is where it gets a bit chuggy)
D#|---------------------------------------------------------------------------|
A#|---------------------------------------------------------------------------|
F#|---------------------------------------------------------------------------|Play this bit
C#|-0-0-0--1-1-1---4-4-4---5-5-5---5-8-5-5-4-4-4-7-4-4-3-3-3------------------|x2
G#|-0-0-0--1-1-1---4-4-4---5-5-5---5-8-5-5-4-4-4-7-4-4-3-3-3------------------|
C#|-0-0-0--1-1-1---4-4-4---5-5-5---5-8-5-5-4-4-4-7-4-4-3-3-3------------------|
      P P    P P     P P     P P         P   P       P   P P

(Now the next bit is tricky, its got a double strum palm muted section for the entire part, when you listen
to the song you will understand what I mean, the chug in it sounds amazing but it is quite difficult to
play.
The tab will be useless as it follows the exact same pattern as the other parts of the breakdown, so if
you think you can play that bit, just play the pattern above with a double palm muted strum on it.)

D#|------------------5--------------------------------------------------------|
A#|------------------8--------------------------------------------------------|
F#|------------------7--------------------------------------------------------|
C#|-0----1-----4-----5--------------------------------------------------------|
G#|-0----1-----4-----5--------------------------------------------------------|
C#|-0----1-----4-----5--------------------------------------------------------|
                     |
(This is the first chord of the final chorus)

Chorus (normal chorus)
[Final part]
D#|---------------------------------------------------------------------------|
A#|---------------------------------------------------------------------------|
F#|---------------------------------------------------------------------------|
C#|-0-0-0--1-1-1---4-4-4---5-5-5---5-8-5-5-4-4-4-7-4-4-3-3-3------------------|
G#|-0-0-0--1-1-1---4-4-4---5-5-5---5-8-5-5-4-4-4-7-4-4-3-3-3------------------|
C#|-0-0-0--1-1-1---4-4-4---5-5-5---5-8-5-5-4-4-4-7-4-4-3-3-3------------------|
      P P    P P     P P     P P         P   P       P   P P

(Now the very last bar is the double palm muted strumming chug madness part again, apart from the very last
note after the 4-4-7-4 is the pinch squeal that I am not quite sure about so I often end it on the power
chord on the 3rd fret)
D#|-------------------------------------|
A#|-------------------------------------|
F#|-3-----------------------------------|
C#|-3-----------------------------------|
G#|-3-----------------------------------|
C#|-3-----------------------------------|    

************************************

| /   slide up
| \   slide down
| h   hammer-on
| p   pull-off
| ~   vibrato
| +   harmonic
| x   Mute note
| b   Bend
| P   Palm Muted (will be just below tab)

************************************

            
            
Suggest correction
Creating personal tab
Creating personal tab
You can edit any tab online and save it as your Personal.

You can edit, replace or remove any tab part or add personal notes – all changes will be seen only by you.

Personal tabs can be accessed anytime from any device, even offline.
Learn more »
comments
print report bad tab
5 comments total. Showing first comments.
0 reply
lewis_barton5 10 Jan 19, 2016 08:57 AM

amazing tab, 101% accurate

+2 reply
Jbaza9731 10 Apr 11, 2016 07:34 AM

Dude great tab! love the commentary through out

0 reply
codrocks70 10 Apr 26, 2016 02:31 AM

Amazing! Really clear and easy to understand

guest
You may want to rate the tab now too:
select rating
Wanna post a correction for this tab? Suggest correction