Oops, an error
Loading. Please wait.

Catalyst intro tab

version 1
version 1

Intro

Whole song

Interactive

by Dorje
9,181 views 27 this week
8 commentsread comments
1 2 3 4 5
x 14
add to favorites
×
Save as Personal and add changes to this tab that will be seen only by you. Learn more ›
×
You can save this tab as Personal to edit and correct it or add notes. All changes will be seen only by you. Learn more »
launch autoscroll
font size
0
reset
how to read this tab
guitar tuner
edit
Autoscroll
slow
fast
+/-
esc
set tempo
stop
Here is the tab that I have transcribed for the new Dorje track 'Catalyst'
I know there will be some slight mistakes but this is the best I could get it by ear 
after playing for only 3
years!

At the moment I have only done the Intro and main riff at the start, but will hope to 
add more later.

The tuning for this song is Drop C#, so from low to high the strings are tuned to:
C#  G#  C#  F#  A#  D#

 H= Harmonic
 PM= Palm Muted
                                                 HH                                    PM--->
D#|----------------------------------------------------------------------------------------------------------|
A#|----------------------------------------------------------------------------------------------------------|
F#|--------------------------------------------------------------------------10-10-10-10---10-7-7-7-7-7------|
C#|---------------------------------10--------5------------------------------8--8--8--8----8--5-5-5-5-5------|
G#|---9-------------9------------------10----5----9-------------9------------8--8--8--8----8--5-5-5-5-5------|
C#|----12-0-10-12----12-0-10-12----8-----8--5------12-0-10-12----12-0-10-12--8--8--8--8----8--5-5-5-5-5------|

                                                    HH                                   PM--->
D#|----------------------------------------------------------------------------------------------------------|
A#|----------------------------------------------------------------------------------------------------------|
F#|-----------------------------------------------------------------------------10-10-10-10--7-7-7-7-7-------|
C#|-----------------------12-16-12----------10--------5-------------------------------8--8--8--8---5-5-5-5-5-|
G#|---9------------12-15-----------15-12------10----5----9-------------9-------------8--8--8--8---5-5-5-5-5--|
C#|----12-0-10-12-------------------------8-----8--5------12-0-10-12----12-0-10-12---8--8--8--8---5-5-5-5-5--|

            
            
Suggest correction
Creating personal tab
Creating personal tab
You can edit any tab online and save it as your Personal.

You can edit, replace or remove any tab part or add personal notes – all changes will be seen only by you.

Personal tabs can be accessed anytime from any device, even offline.
Learn more »
comments
print report bad tab
8 comments total. Showing first comments.
+1 reply
samyueru 52 Dec 19, 2015 03:32 AM

Mostly good, I managed to work out one bit of it, where you go up to the F# string on 9-12-9, that lick is actually:

D# -----------------------------------
A# -----------------------------------
F# -----------------------------------
C# ----------------------12-15--------
G# -9--------------12-15-------15-12~-
C# ---12-0-10-12----------------------

I think it is this, played it and it sounds better and checked their music video, Rabea goes on the 12th Fret and above, hope this can be added, and other than that great tab!

0 reply
tomybommy 10 Apr 17, 2016 03:26 AM

great tab thanks alot!

0 reply
kozy dublin 24 Jun 06, 2016 06:42 AM

Great job guys, any chance u could tab out the rest of the song…?

guest
You may want to rate the tab now too:
select rating
Wanna post a correction for this tab? Suggest correction