Oops, an error
Loading. Please wait.

Catalyst tab

version 1
version 1

Whole song

Interactive

by Dorje
18,634 views 138 this week
2 commentsread comments
1 2 3 4 5
x 19
add to favorites
×
Save as Personal and add changes to this tab that will be seen only by you. Learn more ›
×
You can save this tab as Personal to edit and correct it or add notes. All changes will be seen only by you. Learn more »
launch autoscroll
font size
0
reset
how to read this tab
guitar tuner
edit
Autoscroll
slow
fast
+/-
esc
set tempo
stop
-------------------------------------------------------------------------------
                            Catalyst - Dorje
-------------------------------------------------------------------------------
Tabbed by: Schmööörp

My Cover should help you to hear the rhythm: https://www.youtube.com/watch?v=9XrZx73rO9U 

Lesson: https://www.youtube.com/watch?v=_jDiEHcHaL8

Tuning: Drop C#


[Intro]

    b  p    h       b                            + +    
D#|---------------------------------------------------------------------------|
A#|---------------------------------------------------------------------------|
F#|------------------------------------------------7--------------------------|
C#|---------------------------------10-----------7----------------------------|
G#|-9---------------9-----------------10-10-----------------------------------|
C#|-0--12-0-10-12-x-0--12-0-10-x-8----------x-5-------------------------------|

      b   p    h      b     
D#|----------------------------------------------------------------------------|
A#|----------------------------------------------------------------------------|
F#|---------------------------------------10-10------7-7-----------------------|
C#|----------------------------------8-8--8--8--5-5--5-5-----------------------|
G#|---9---------------9--------------8-8--8--8--5-5--5-5-----------------------|
C#|-x-0--12-0-10-12-x-0-12-0-10-12-x-8-8--8--8--5-5--5-5-----------------------|

      b  p    h        h    hp p p  ~~                  + +
D#|---------------------------------------------------------------------------|
A#|---------------------------------------------------------------------------|
F#|-------------------------------------------------------7-------------------|
C#|-----------------------8-12-8----------10------------7---------------------|
G#|---9--------------9-10--------10-9--------10-10----------------------------|
C#|-x-0--12-0-10-12-------------------x-8----------x-5------------------------|

      b  p    h       b     
D#|----------------------------------------------------------------------------|
A#|----------------------------------------------------------------------------|
F#|---------------------------------------10-10------7-7-----------------------|
C#|----------------------------------8-8--8--8--5-5--5-5-----------------------|
G#|---9---------------9--------------8-8--8--8--5-5--5-5-----------------------|
C#|-x-0--12-0-10-12-x-0-12-0-10-12-x-8-8--8--8--5-5--5-5-----------------------|


[Verse 1] (4x)

D#|---------0-----------3-----------5------1---0-1----------------------------|
A#|-----3-----------6-----------8------------3--------------------------------|
F#|-------2-----------5-----------7------2------------------------------------|
C#|---0-----------3-----------5-----------------------------------------------|
G#|---------------------------------------------------------------------------|
C#|-0-----------3-----------5----------0--------------------------------------|


[Pre-Chorus]

(Back of the volume to get a pushed clean tone in the first      
Pre-Chorus, the 2nd guitar plays harmonics at full volume
at the 4th fret of the E-string)  

D#|---------------------------------------------------------------------------|
A#|---------------------------------------------------------------------------|
F#|---------------------------------------------------------------------------|
C#|---------------------------------------------------------------------------|
G#|---------------------------------------3-----------------------------------|
C#|-0-x-0-x-x-0-x-0-x-x-0-x-0-x-x-0-0-3-5---5-3-0-----------------------------|

D#|---------------------------------------------------------------------------|
A#|---------------------------------------------------------------------------|
F#|---------------------------------------------------------------------------|
C#|---------------------------------------5-5-5-5-----------------------------|
G#|---------------------------------------3-3-3-3-----------------------------|
C#|-0-x-0-x-x-0-x-0-x-x-0-x-0-x-x-0-0-3-5-------------------------------------|


[Chorus 1] (2x)

                                                b+  hp  hp  h
D#|---------------------------------------------------------------------------|
A#|---------------------------------------------------------------------------|
G#|----7---7--7-7-/10-10-10--10--10--------------2----------------------------|
C#|----x---x--x-x-/x--x--x---8---8---\5--5--5------3--------------------------|
G#|----5---5--5-5-/8--8--8---8---8---\5--5--5--------5-0-3-0-3/---------------|
C#|-0--0---0--0-0-/0--0--0-x-8---8---\5--5--5-xxx-----------------------------|
                         
                                           hp b+ 
D#|---------------------------------------------------------------------------|
A#|---------------------------------------------------------------------------|
F#|---/7-7/10-1010-10/12------------------------------------------------------|
C#|---/x-x/x--x-x--x-/x---8-8-8-10-8-5----------------------------------------|
G#|---/5-5/8--8-8--8-/10--8-8-8-10-8-5---0-3-5-3-0/---------------------------|
C#|-0--0-0-0--0-0--0-/0-x-8-8-8-10-8-5--x-------------------------------------|


[Verse 2]

(Strumm the chords in this order in rhythm and repeat)

D#|--5---5---5---5------------------------------------------------------------|
A#|--6---5---6---8------------------------------------------------------------|
F#|--7---7---7---7------------------------------------------------------------|
C#|--0---0---0---0------------------------------------------------------------|
G#|---------------------------------------------------------------------------|
C#|---------------------------------------------------------------------------|


[Chorus 2]

(Same as before but at the end you play this)

D#|---------------------------------------------------------------------------------|
A#|---------------------------------------------------------------------------------|
F#|---------------------------------------------------------------------------------|
C#|-----------------10--10-10-10/9--9-9-9/8--8-8-8----------------------------------|
G#|-----8---8/10----8---8--8--8-/7--7-7-7/6--5-5-5----------------------------------|
C#|-5-5---5------xx---xx----------xx-------xx-----x---------------------------------|


[Solo Backing]

D#|---------------------------------------------------------------------------|
A#|---------------------------------------------------------------------------|
F#|---------------------------------------------------------------------------|
C#|---------------------10-----5---------------------10-----5-----------------|
G#|-9----------------10----------9----------------10----------5---------------|
C#|-0--12-10-12--x-8-------x-5---0--12-10-12--x-8-------x-5-----5-------------|


D#|-----------------------------------------------------------------------------------|
A#|-----------------------------------------------------------------------------------|
F#|-----------------------------------------------------------------------------------|
C#|---------------------10-----5---8-8-8-8-8/3-3-0-3-0-5-3-0-0------------------------|
G#|-9----------------10------------8-8-8-8-8/3-3-0-3-0-5-3-0-0------------------------|
C#|-0--12-10-12--x-8-------x-5---x-8-8-8-8-8/3-3-0-3-0-5-3-0-0------------------------|


************************************

| /   slide up
| \   slide down
| h   hammer-on
| p   pull-off
| ~   vibrato
| +   harmonic
| x   Mute note
| b   Bend
| pb  Pre-bend
| br  Bend release
| pbr Pre-bend release
| brb Bend release bend

************************************

            
            
Suggest correction
Creating personal tab
Creating personal tab
You can edit any tab online and save it as your Personal.

You can edit, replace or remove any tab part or add personal notes – all changes will be seen only by you.

Personal tabs can be accessed anytime from any device, even offline.
Learn more »
comments
print report bad tab
2 comments total.
0 reply
riffking 236 May 06, 2016 06:56 AM, edited on May 8 2016, 08:53 am

I think the verse goes like this, let me know what you think:
D#|---------------------------------3-----------0------|A#|---------3-----------3-------3-----------3----------|F#|-----2-----------0---------0---------------0--------|C#|---0---0-------3---0-----------0-------0------------|G#|-------------------------1--------------------------|C#|-0-----------3-----------------------5--------------|with variations on each played ad lib. Either way, I'm almost certain it goes " C# : Fb : Bb : Gb "

0 reply
riffking 236 May 08, 2016 04:53 AM

I think the verse goes like this, let me know what you think:
D#|---------------------------------3-----------0------|
A#|---------3-----------3-------3-----------3----------|
F#|-----2-----------0---------0---------------0--------|
C#|---0---0-------3---0-----------0-------0------------|
G#|-------------------------1--------------------------|
C#|-0-----------3-----------------------5--------------|

with variations on each played ad lib. Either way, I'm almost certain it goes " C# : Fb : Bb : Gb "

guest
You may want to rate the tab now too:
select rating
Wanna post a correction for this tab? Suggest correction