Oops, an error
Loading. Please wait.

Flower Of Life Tab

version 1
version 1

Intro

  • Sounds better than the previous intro and laid out a little better.

Whole song

  • It covers all of the rhythm guitar.
109 views 36 this week
no commentswrite comment
1 2 3 4 5
1 last vote to show rating
add to favorites
launch autoscroll
font size
0
reset
how to read this tab
guitar tuner
Autoscroll
slow
fast
+/-
esc
set tempo
stop
Help us to improve Ultimate-Guitar.com Take our survey!
×
Author
Difficulty
Tuning
intermediate
C G C F A D
About this tab version
Sounds better than the previous intro and laid out a little better. Was this info helpful? Yes No
[Intro]
D|---------------------------------------------------------------------------|
A|---------------------------------------------------------------------------|
F|------------------------8------------10-----------9/10---------------------|
C|----------------------8------------10--------------------------------------| x3
G|---------12-11------6------------8----------10/12--------------------------|
C|-0-0-10-0-----5b6-5--------8-8-0---------0---------------------------------|

D|---------------------------------------------------------------------------|
A|---------------------------------------------------------------------------|
F|---------------------------------------------------------------------------|
C|-12-12-12-12-12---12-12-12-12-12-12-12-12----------------------------------|
G|-9--9--9--9--9----9--9--9--9--9/-10-10-10--3-3-3---------------------------|
C|-0--0--0--0--0----0--0--0--0--0--0--10-10--3-3-3---5/-6\-5-0-1-0-----------|


D|---------------------------------------------------------------------------|
A|---------------------------------------------------------------------------|
F|------------------------------------------------12-12-12-10-10-------------|
C|-12-12-12-12-12---12-12-12-12-12-12-12-12-12-12-8--8--8--8--8--------------|
G|-9--9--9--9--9----9--9--9--9--9/-10-9--9--9--8--8--8--8--8--8--------------|
C|-0--0--0--0--0----0--0--0--0--0--0--9--9--9--8--8--8--8--8--8--------------|

************************************

| /  Slide up
| b  Bend
| \  Slide down

************************************
Suggest correction
Give kudos to tab author, rate the tab!
1 2 3 4 5
comments
print report bad tab
guest
You may want to rate the tab now too:
select rating
Wanna post a correction for this tab? Suggest correction