Oops, an error
Loading. Please wait.

Flower Of Life Tab

version 1
version 1

Solo

Whole song

  • It covers all of the rhythm guitar.
466 views 48 this week
4 commentsread comments
1 2 3 4 5
x 4
add to favorites
launch autoscroll
font size
0
reset
how to read this tab
guitar tuner
Autoscroll
slow
fast
+/-
esc
set tempo
stop
Help us to improve Ultimate-Guitar.com Take our survey!
×
Difficulty
Tuning
intermediate
C G C F A D
Solo

D|---------------------------------------------------------------------------|
A|------------------11~--10----------10-11-10h11p10-------10-----------------|
F|-9b---------12~-----------12-11-12----------------12-11~----12-11----------|
C|-------/10------8-----------------------------------------------12/13-12~--|
G|---------------------------------------------------------------------------|
C|---------------------------------------------------------------------------|

D|-------------------------------------13----------------13-15-17fb----------|
A|----------13----------------13-15-16----16-15-13-15-16---------------------|
F|-12-14-15----15-14-12-14-15---------------------------------------14-------|
C|---------------------------------------------------------------------------|
G|---------------------------------------------------------------------------|
C|---------------------------------------------------------------------------|

D|-----------15~----17~-17-15-14-15-17-15-15h17p15p14---14-------------------|
A|-17fb----------------------------------------------16----16-15-15h16p15p13-|
F|-------/17----15-----------------------------------------------------------|
C|---------------------------------------------------------------------------|
G|---------------------------------------------------------------------------|
C|---------------------------------------------------------------------------|

D|---------------------------------------------------------------------------|
A|----13---------------------------------------------------------------------|
F|-15----15-14-14h15p14p12/11h12p11----11------------------------------------|
C|----------------------------------13----13-12~~----------------------------|
G|---------------------------------------------------------------------------|
C|---------------------------------------------------------------------------|

D|-------------------------------10------------------------------------------|
A|----------------------------10----10-13b-----------------------------------|
F|--------------10-12b-10-12b------------------------------------------------|
C|--------10-12--------------------------------------------------------------|
G|-/10-12--------------------------------------------------------------------|
C|---------------------------------------------------------------------------|


************************************

| x   Dead note
| g   Grace note
| (n) Ghost note
| h   Hammer-on
| p   Pull-off
| r   Release
| >   Accented note
| t   Tapping
| b   Bend
| br  Bend release
| pb  Pre-bend
| pbr Pre-bend release
| /   Slide up
| \   Slide down
| ~   Vibrato
| s   Slap
| P   Pop
| PM  Palm mute
| TR  Trill
| N   Tremolo

************************************
Suggest correction
comments
print report bad tab
4 comments total. Showing first comments.
0 reply
Connor Wakes 10 Oct 18, 2016 09:22 AM

The tab is upside down, the solo starts on the F/G string

0 reply
SHAZZY1971 16 Oct 18, 2016 09:32 PM

Thankyou Connor, Im an idiot and its my first tab, so yeah sorry for anyone else pissed off by that!

0 reply
SHAZZY1971 16 Oct 18, 2016 09:35 PM

Anyone tell me how to edit my tab contributions?

guest
You may want to rate the tab now too:
select rating
Wanna post a correction for this tab? Suggest correction