Oops, an error
Loading. Please wait.

Flower Of Life Tab

version 1
version 1

Whole song

  • It covers all of the rhythm guitar.
1,081 views 111 this week
no commentswrite comment
1 2 3 4 5
x 6
add to favorites
launch autoscroll
font size
0
reset
how to read this tab
guitar tuner
Autoscroll
slow
fast
+/-
esc
set tempo
stop
Help us to improve Ultimate-Guitar.com Take our survey!
×
Author
Difficulty
Tuning
advanced
C G C F A D
About this tab version
It covers all of the rhythm guitar. Was this info helpful? Yes No
-----------------------------------------------------------------------------------
                              Dorje - Flower of Life
-----------------------------------------------------------------------------------

Lesson: https://www.youtube.com/watch?v=ELAUxsJDjSI

Tuning: Drop C

Intro (1) slightly driven guitar

              pm                                       pm 
D|---0------------------------------------------0------------------------------------------|
A|-----------------------------------------------------------------------------------------|
F|-----10------------------------8--------10------10------------------------8--------10----|
C|-------------------------5-5--8--8-8--10----------------------------5-5--8--8-8--10------|
G|-12--------------12-11---5-5-6---8-8-8------12--------------12-11---5-5-6---8-8-8--------|
C|--------0-0-10-0-------0-5-5-----8-8------0--------0-0-10-0-------0-5-5-----8-8----------|

Intro (2) heavy crunch 

     s        pm                              s       pm
D|--------------------------------------------------------------------------------------|
A|--------------------------------------------------------------------------------------|
F|-------10----------------------8--------10-------10----------------------8--------10--|
C|-------------------------5-5--8--8-8--10---------------------------5-5--8--8-8--10----|
G|--9/12-----------12-11---5-5-6---8-8-8------9/12-----------12-11---5-5-6---8-8-8------|
C|-0------0-0-10-0-------0-5-5-----8-8-------0------0-0-10-0-------0-5-5-----8-8--------|
Intro (Solo Backing)(3)

           pm          pm
D|----------------------------------------------------------------------------------------|
A|----------------------------------------------------------------------------------------|
F|----------------------------------------------------------------------------------------|
C|-12-12--12-12-12-12--12-12-12-12-12--12-12-12-3-0-3-6-5-0-3-0---------------------------|
G|-9--9---9--9--9--9---9--9--9--0--10--10-10-10-3-0-3-6-5-0-3-0---------------------------|
C|-0--0---0--0--0--0---0--0--0--0--10--10-10-10-3-0-3-6-5-0-3-0---------------------------|

                                                       pinch harmonic

D|-----------------------------------------------------------------------------------------|
A|------------------------------------------------------12---------------------------------|
F|-------------------------------------------------12-12--12-10~~--------------------------|
C|-12-12--12-12-12-12--12-12-12-12-12-12-12-12-12--12-12-----------------------------------|
G|-9--9---9--9--9--9---9--9--9--0--9--9--9--9--8-------------------------------------------|
C|-0--0---0--0--0--0---0--0--0--0--9--9--9--9--8-------------------------------------------|

Vers 1 clean with reverb and delay

D|----------0----------------------------------------|
A|------------10-------------------------------------|
F|---------------------------------------------------|
C|-----12--------12-----------12---------------------|
G|---9----9---------10-----10----10------------------|
C|-0-------------------0-10--------10-0-3-6-5-0-3-0--|

D|----------0-----------------------------------------|
A|------------10-----------------------------12-------|
F|--------------------------------------12-12--12-10~~|
C|-----12--------12------12-12-12-12-12-12-12---------|
G|---9----9---------10---9--9--9--9--8----------------|
C|-0------------------10-9--9--9--9--8----------------|

Pre-Chorus 1 heavy crunch (rhythm differs from the 3rd intro part)

D|----------------------------------------------------------------------------------------|
A|----------------------------------------------------------------------------------------|
F|----------------------------------------------------------------------------------------|
C|-12-12--12-12-12-12--12-12-12-12-12--12-12-12-3-0-3-6-5-0-3-0---------------------------|
G|-9--9---9--9--9--9---9--9--9--0--10--10-10-10-3-0-3-6-5-0-3-0---------------------------|
C|-0--0---0--0--0--0---0--0--0--0--10--10-10-10-3-0-3-6-5-0-3-0---------------------------|

                                                 pinch harmonic                                bend and pinch

D|-----------------------------------------------------------------------------------------------------------|
A|-----------------------------------------------------12----------------------------------------------------|
F|------------------------------------------------12-12--12-10~~---------------------------------5-5-5-5-5-5~|
C|-12-12--12-12-12-12--12-12-12-0-12-12-12-12-12--12-12-------------0-0-0-0--0-0-0-5-5-5-3-3-3-6-------------|
G|-9--9---9--9--9--9---9--9--9--0-9--9--9--9--8------------------------------0-0-0-5-5-5-3-3-3-6-------------|
C|-0--0---0--0--0--0---0--0--0--0-9--9--9--9--8------------------0-3-5-6-6-6-0-0-0-5-5-5-3-3-3-6-------------|

Chorus 1 
                               pm                                                  
D|-----------------------------------------------------------------------------------------------------------|
A|-----------------------------------------------------------------------------------------------------------|
F|-------------------0---------------------------------------------------------0-----------------------------|
C|------10---------5---------3-3--3-3-3--3-3-0-3/5/3-0-3/10------10-----------5--------5/1--1-1-0-1-0---5/4--|
G|---5/9---------------3-3---3-3--3-3-3--3-3-0-3/5/3-0-3/10---5/9----------------3-3---5/1--1-1------3/5---5-|
C|-0------0-10-0-0-5--0----0-3-3--3-3-3--3-3-0-3/5/3-0-3/10-0------0-10-0-0-5---0----0-5/1--1-1--------------|

The second time you play the ending like this and go into intro (2)
Slide through all the notes try to accent them

   h p h
D|-----------------------|
A|-----------------------|
F|----------------10-----|
C|-0-1-0-----------------|
G|-------3/5/10/12-------| 
C|-------------------0-0-|


Vers 2

   b                               b             h p p
D|-----------------------------------------------------------|
A|-----------------------------------------------------------|
F|-----------------------------------------------------------|
C|-10------------------------------10--------------------5/5-|
G|---------12-----10/7----0-----3----5-----5-----5-8-5-0-3/2-|
C|---12-10----10/9----5-7--5/3-0-0-----6-7---5-0--------0----|

The second time play deadnotes X

   b                               b              X X X 
D|------------------------------------------------------------|
A|------------------------------------------------------------|
F|------------------------------------------------------------|
C|-10------------------------------10---------------------5/5-|
G|---------12-----10/7----0-----3----5-----5--------------3/2-|
C|---12-10----10/9----5-7--5/3-0-0-----6-7---5-0--5-7-8-0-----|

Into the second chorus
                                                
D|---------------------------------------------------------|
A|---------------------------------------------------------|
F|---------------------------------------------------------|
C|-5-5-5-3-3-3-6-6-6-6-6-6-0-0-0-5-5-5-3-3-3-6-6--6-6--6-6-|
G|-5-5-5-3-3-3-6-6-6-6-6-6-0-0-0-5-5-5-3-3-3-6-6--6-6--6-6-|
C|-5-5-5-3-3-3-6-6-6-6-6-6-0-0-0-5-5-5-3-3-3-6-6--6-6--6-6-|

Outro (all the parts are in there)

D|-----------------------------------------|
A|-----------------------------------------|
F|-----------------------------------10----|
C|-----------------------------------------|
G|-----------------------------11/12----12-|
C|-0-0-10/12-10-0-10-10-0-10-0-------------|

D|-------------------------------| 
A|-------------------------------| 
F|-------------------------------| 
C|-1-1----------1-1-----3/5-3----| 
G|-1-1--3-3-3-3-1-1--3-------5-3-| 
C|-1-1-x---x----1-1-x--x---------| 

D|------------------------------------------|
A|------------------------------------------|
F|-------------10-10------------------------|
C|8-8--12-12--8-----8-8-12-12-0-3/6/5-0-3-0-|
G|8-8---------8-----8-8-------0-3/6/5-0-3-0-|
C|8-8-x-----x-8-----8-8-------0-3/6/5-0-3-0-|


x= Deadnote
p= Pull-off
h= Hammer-on
pm= Palm Mute
b= Bend
s / =slide
~~= let ring
Suggest correction
comments
print report bad tab
guest
You may want to rate the tab now too:
select rating
Wanna post a correction for this tab? Suggest correction