Oops, an error
Loading. Please wait.

After Midnight Tab

version 1
version 1

Whole song

Interactive

238 views 9 this week
no commentswrite comment
1 2 3 4 5
1 last vote to show rating
add to favorites
launch autoscroll
font size
0
reset
how to read this tab
guitar tuner
Autoscroll
slow
fast
+/-
esc
set tempo
stop
Help us to improve Ultimate-Guitar.com Take our survey!
×
Author
Difficulty
novice
Artist: Dorothy
Song: After Midnight

Tabbed by ear from this version: https://www.youtube.com/watch?v=d7DYCvCDeU8 .
4/4 quarter notes measured above tab to help with the rhythm. 
1/4 = 75 (on metronome)
I have also uploaded a Guitar Pro version of the whole song, with bass and drums.


[Intro]

*2 bars rest*

[Verse 1]

       1    2  3  4    1    2   3  4 &      1   2  3  4    1    2   3     4
e|-----------------|---------------------|---------------|---------------------|
B|-----------------|---------------------|---------------|---------------------|
G|-----6-6--6------|---6-6--6----------6-|--6---6--------|-4-4--4---/6-4-------|
D|-----4-4--4------|---4-4--4----------4-|--4---4--------|-2-2--2---------4----|
A|-----4-4--4------|---4-4--4----------4-|--4---4--------|-2-2--2-----------7--|
E|-----------------|---------------------|---------------|---------------------|

       1    2  3  4    1    2   3       4          1    2  3  4   1    2   3     4
e|-----------------|----------------------------|---------------|---------------------|
B|-----------------|----------------------------|---------------|---------------------|
G|-----6-6--6------|---6-6--6---4-6-4-----------|--6-6--6-------|-4-4--4---/6-4-------|
D|-----4-4--4------|---4-4--4---------6-4-6-4---|--4-4--4-------|-2-2--2---------4----|
A|-----4-4--4------|---4-4--4-----------------7-|--4-4--4-------|-2-2--2-----------7--|
E|-----------------|----------------------------|---------------|---------------------|


[Chorus]
   
    1  2  3      4         1   2   3       4          1  2  3      4        1   2   3     4         
e|---------------------|---------------------------|---------------------|--------------------|
B|---------------------|---------------------------|---------------------|--------------------|
G|--6--6------4------6-|---4---4---4-6-4-----------|--2--2------4------6-|----------/6-4------|
D|--4--4--4-6----4-6---|---2---2---------6-4-6-4---|--2--2--4-6----4-6---|--4---4---------4---|
A|--4--4---------------|---2---2-----------------7-|--0--0---------------|--2---2-----------7-|
E|---------------------|---------------------------|---------------------|--2---2-------------|(x2)

*1 bar rest*


[Verse 2]

       1    2  3  4    1    2   3  4 &      1   2  3  4    1    2   3     4
e|-----------------|---------------------|---------------|---------------------|
B|-----------------|---------------------|---------------|---------------------|
G|-----6-6--6------|---6-6--6----------6-|--6---6--------|-4-4--4---/6-4-------|
D|-----4-4--4------|---4-4--4----------4-|--4---4--------|-2-2--2---------4----|
A|-----4-4--4------|---4-4--4----------4-|--4---4--------|-2-2--2-----------7--|
E|-----------------|---------------------|---------------|---------------------|

[Chorus]
   
    1  2  3      4         1   2   3       4          1  2  3      4        1   2   3     4         
e|---------------------|---------------------------|---------------------|--------------------|
B|---------------------|---------------------------|---------------------|--------------------|
G|--6--6------4------6-|---4---4---4-6-4-----------|--2--2------4------6-|----------/6-4------|
D|--4--4--4-6----4-6---|---2---2---------6-4-6-4---|--2--2--4-6----4-6---|--4---4---------4---|
A|--4--4---------------|---2---2-----------------7-|--0--0---------------|--2---2-----------7-|
E|---------------------|---------------------------|---------------------|--2---2-------------|(x2)

*2 bars rest*


[Solo]

{Use vibrato on all notes}
    1  2  3  4    1  2  3  4   &        1  2  3  4     1  2   3      4
e|--------------|--------------------|--------------|----------------14-12--|
B|--14-14-14-14-|-14-14-14-14--12-14-|--17-17-17-17-|--14-14- 14-12---------|
G|--------------|--------------------|--------------|-----------------------|
D|--------------|--------------------|--------------|-----------------------|
A|--------------|--------------------|--------------|-----------------------|
E|--------------|--------------------|--------------|-----------------------|


[Chorus]
   
    1  2  3      4         1   2   3       4          1  2  3      4        1   2   3     4         
e|---------------------|---------------------------|---------------------|--------------------|
B|---------------------|---------------------------|---------------------|--------------------|
G|--6--6------4------6-|---4---4---4-6-4-----------|--2--2------4------6-|----------/6-4------|
D|--4--4--4-6----4-6---|---2---2---------6-4-6-4---|--2--2--4-6----4-6---|--4---4---------4---|
A|--4--4---------------|---2---2-----------------7-|--0--0---------------|--2---2-----------7-|
E|---------------------|---------------------------|---------------------|--2---2-------------|(x2)


************************************

| /   Slide up

************************************
Suggest correction
Give kudos to tab author, rate the tab!
1 2 3 4 5
comments
print report bad tab
guest
You may want to rate the tab now too:
select rating
Wanna post a correction for this tab? Suggest correction