Oops, an error
Loading. Please wait.

Missile Tab

199 views 12 this week
no commentswrite comment
1 2 3 4 5
3 more votes to show rating
add to favorites
launch autoscroll
font size
0
reset
how to read this tab
guitar tuner
Autoscroll
slow
fast
+/-
esc
set tempo
stop
Help us to improve Ultimate-Guitar.com Take our survey!
×
Author
Difficulty
Tuning
intermediate
D A D G B E
About this tab version
This version sounds good for a single guitar, hence the big power chords. Was this info helpful? Yes No
(Use a pitch pedal for the slides down in the verses)

[Verse 1]                                                                                            
e|--------------------------------------------------------------------------|               
B|--------------------------------------------------------------------------|                 
G|--------------------------------------------------------------------------|                 
D|0----0---\---------0----0---\---------0----0---\---------0----0---\-------|                 
A|0----0---\---------0----0---\---------0----0---\---------0----0---\-------|
D|0----0---\---------0----0---\---------0----0---\---------0----0---\-------|

e|------------------------------------------|
B|------------------------------------------|
G|------------------------------------------|
D|0----0----3---/5-7-5--0----0----3---/5-7-5|
A|0----0----3---/5-7-5--0----0----3---/5-7-5|
D|0----0----3---/5-7-5--0----0----3---/5-7-5|

[Verse 2]
e|--------------------------------------------------------------------------|               
B|--------------------------------------------------------------------------|                 
G|--------------------------------------------------------------------------|                 
D|0----0---\---------0----0---\---------0----0---\---------0----0---\-------|                 
A|0----0---\---------0----0---\---------0----0---\---------0----0---\-------|
D|0----0---\---------0----0---\---------0----0---\---------0----0---\-------|

e|------------------------------------------|
B|------------------------------------------|
G|------------------------------------------|
D|0----0----3---/5-7-5--0----0----3---/5-7-5|
A|0----0----3---/5-7-5--0----0----3---/5-7-5|
D|0----0----3---/5-7-5--0----0----3---/5-7-5|

[Pre-Chorus]
e|------------------------------------------|
B|------------------------------------------|
G|------------------------------------------|
D|0----0----3---/5-7------------------------|
A|0----0----3---/5-7------------------------|
D|0----0----3---/5-7------------------------|

[Chorus]  
e|-------------------------------------------------------------------------------|
B|-------------------------------------------------------------------------------|
G|-------------------------------------------------------------------------------|     x2
D|0----0----3h5--3---/10---10--\3----5----0----0----3h5-3-0----10---10--\3----5--|
A|0----0----3h5--3---/10---10--\3----5----0----0----3h5-3-0----10---10--\3----5--|
D|0----0----3h5--3---/10---10--\3----5----0----0----3h5-3-0----10---10--\3----5--|

[Verse 3]
e|--------------------------------------------------------------------------|               
B|--------------------------------------------------------------------------|                 
G|--------------------------------------------------------------------------|                 
D|0----0---\---------0----0---\---------0----0---\---------0----0---\-------|                 
A|0----0---\---------0----0---\---------0----0---\---------0----0---\-------|
D|0----0---\---------0----0---\---------0----0---\---------0----0---\-------|

e|------------------------------------------|
B|------------------------------------------|
G|------------------------------------------|
D|0----0----3---/5-7-5--0----0----3---/5-7-5|
A|0----0----3---/5-7-5--0----0----3---/5-7-5|
D|0----0----3---/5-7-5--0----0----3---/5-7-5|

[Pre-Chorus]
e|------------------------------------------|
B|------------------------------------------|
G|------------------------------------------|
D|0----0----3---/5-7------------------------|
A|0----0----3---/5-7------------------------|
D|0----0----3---/5-7------------------------|

[Chorus]  
e|-------------------------------------------------------------------------------|
B|-------------------------------------------------------------------------------|
G|-------------------------------------------------------------------------------|     x2
D|0----0----3h5--3---/10---10--\3----5----0----0----3h5-3-0----10---10--\3----5--|
A|0----0----3h5--3---/10---10--\3----5----0----0----3h5-3-0----10---10--\3----5--|
D|0----0----3h5--3---/10---10--\3----5----0----0----3h5-3-0----10---10--\3----5--|

[Solo]
(Rhythm guitar plays chorus chords)
e|-------------------------------------------------------------------------------|
B|15---13h15--13----13------------------15---13h15-/18-15-13----13---------------|
G|---------------14------14--12--10-7------------------------14------14--12--10-7|
D|-------------------------------------------------------------------------------|
A|-------------------------------------------------------------------------------|
D|-------------------------------------------------------------------------------|

[Interlude]
No guitar

[Chorus]  
e|-------------------------------------------------------------------------------|
B|-------------------------------------------------------------------------------|
G|-------------------------------------------------------------------------------|     x2
D|0----0----3h5--3---/10---10--\3----5----0----0----3h5-3-0----10---10--\3----5--|
A|0----0----3h5--3---/10---10--\3----5----0----0----3h5-3-0----10---10--\3----5--|
D|0----0----3h5--3---/10---10--\3----5----0----0----3h5-3-0----10---10--\3----5--|

[Solo]
(Rhythm guitar plays chorus chords)
e|-------------------------------------------------------------------------------|
B|15---13h15--13----13------------------15---13h15-/18-15-13----13---------------|
G|---------------14------14--12--10-7------------------------14------14--12--10-7|
D|-------------------------------------------------------------------------------|
A|-------------------------------------------------------------------------------|
D|-------------------------------------------------------------------------------|
 

************************************

| \  Slide down
| /  Slide up
| h  Hammer-on 

************************************
Suggest correction
Give kudos to tab author, rate the tab!
1 2 3 4 5
comments
print report bad tab
guest
You may want to rate the tab now too:
select rating
Wanna post a correction for this tab? Suggest correction