Oops, an error
Loading. Please wait.

Order Disorder tab

5,439 views 15 this week
7 commentsread comments
1 2 3 4 5
x 9
add to favorites
×
Save as Personal and add changes to this tab that will be seen only by you. Learn more ›
×
You can save this tab as Personal to edit and correct it or add notes. All changes will be seen only by you. Learn more »
launch autoscroll
font size
0
reset
how to read this tab
guitar tuner
edit
Autoscroll
slow
fast
+/-
esc
set tempo
stop
Author
Hey folks, 
this is my attempt to tab this great song by Dot Hacker

x for muted strings for those who don't already know.
Notes in brackets: means that I'm not sure, because I didn't really hear it or only 
heard it a few times.
Strum as strong as possible without breaking the strings.^^

-Intro Riff:
-x--x-----x--x-----x--x-----x--x--|
-4--4-----3--3-----x--x-----x--x--|
-3--3-----3--3----(5)(5)---(5)(5)-|
-x--x-----x--x-----5--5-----5--5--|
-3--3-----3--3-----3--3-----3--3--|
-x--x-----x--x-----3--3-----3--3--|


ca. 0:23 ("why? why?...")

okay, that really sounds like synthesizer, but in live videos it is played by Guitar II 
like this (I guess), Guitar I is still playing the first riff.

--------------------------------------------------------------------|
-16--16--16--16--15--15--15--15--15--17--17--17--17--17--17--17--17-|
-17--17--17--17--17--17--17--17--17--17--17--17--17--17--17--17--17-|
--------------------------------------------------------------------|
--------------------------------------------------------------------|
--------------------------------------------------------------------|
played two times, then Guitar I alone again


-Pre-Chorus

 Eb
--------------------------------------------------------------------------|
--------------------------------------------------------------------------|
-8--8-----8--8-----10-10----10-10-----8--8-----8--8-----10-10----10-10----|
-8--8-----8--8-----10-10----10-10-----8--8-----8--8-----10-10----10-10----|
-6--6-----6--6------8--8-----8--8-----6--6-----6--6------8--8-----8--8----|
--------------------------------------------------------------------------|
following the Intro Riff which is played two times


0:35 ("that's not the order in which..."):

Guitar I strumming muted strings in sixteenth notes


-Prechorus (followed by the two times intro riff)

Guitar II (while Guitar I plays the intro riff):
------8-----8-------8---------------|
-11------------11-------------------|
--------9-------------9-------------|
------------------------------------|
------------------------------------|
------------------------------------|

-Chorus (only chords, no strum patterns; Dot Hacker themselves strum this part rather at 
random in their live videos...)

---------------------|
---------------------|
---------------------|
-6----5----6----5--3-|
-6----5----6----5--3-|
-4----3----4----3--1-|

followed by the Intro Riff -> Chorus -> Prechorus riff/chords

-The next part's sound is really a mess; you can only define the bass line:

G-8----7----5--8----7----5--|
D---------------------------|
A---------------------------|
E---------------------------|

-some noise and a drum fill follow.

-some noise with a C5 chord

-Chorus

-noisy riff in a 13/8 measure


okay, I'm getting really tired, as you can see. I've tabbed the most important parts, I guess.
This tab is more like a sketch and I don't think that it is 100% correct (I mean: the 
parts I've written down^^). Try to improve it, so that one day we have a nearly perfect 
version of this kick-ass song!

and excuse this German's humble English

            
            
Suggest correction
Creating personal tab
Creating personal tab
You can edit any tab online and save it as your Personal.

You can edit, replace or remove any tab part or add personal notes – all changes will be seen only by you.

Personal tabs can be accessed anytime from any device, even offline.
Learn more »
comments
print report bad tab
7 comments total. Showing first comments.
0 reply
Mr_ZoSo 10 Sep 30, 2012 09:40 AM

Klasse! Endlich macht mal jemand Dot Hacker tabs!
Würde mich echt freun, wenn du Eye Opener oder Quotes hinkriegen würdest. Ich bin leider nich so gut im raushören aber ich glaub der anfang von quotes geht so:

6-778

0 reply
Mr_ZoSo 10 Sep 30, 2012 09:44 AM

hm irgenwie kann ich das mit den tabs nich aber ich machs einfach so: 3x{E:6 d:7 g:7 h:9} 1x{E:6 d:7 g:7 h:6}

-2 reply
rozpuszczalny 10 Feb 03, 2013 12:00 PM

-x-x--x-x--x-x--x-x-
-4-4--3-3--1-1--1-1-
-3-3--3-3--3-3--3-3-
-2-2--2-2--2-2--2-2-
-3-3--3-3--3-3--3-3-
-x-x--x-x--x-x--x-x-

Correct way to play intro/main chords

guest
You may want to rate the tab now too:
select rating
Wanna post a correction for this tab? Suggest correction