Oops, an error
Loading. Please wait.

Puncture tab

631 views 1 this week
2 commentsread comments
1 2 3 4 5
1 last vote to show rating
add to favorites
×
Save as Personal and add changes to this tab that will be seen only by you. Learn more ›
×
You can save this tab as Personal to edit and correct it or add notes. All changes will be seen only by you. Learn more »
launch autoscroll
font size
0
reset
how to read this tab
guitar tuner
edit
Autoscroll
slow
fast
+/-
esc
set tempo
stop
Author
Dot Hacker - Puncture

These guys rock!A shame there aren't a lot of tabs,so I made this.
It's my favourite song from them.
Thanks to mikedapike for the corrections!

Intro:

You can play the guitar silently without distortion:

   F    Eb
e|-1----6--|
B|-1----8--|
G|-2----8--|
D|-3----8--|
A|-3----6--|
E|-1-------|

Verse:

  F    Eb
|-1----6--|
|-1----8--|
|-2----8--|x4
|-3----8--|
|-3----6--|
|-1-------|

Pre-chorus:

  G   D  Bm  F#
|-3---5--2---2--|
|-3---7--3---2--|
|-4---7--4---3--|
|-5---7--4---4--|
|-5---5--2---4--|
|-3----------2--|

  G    A#   F
|-3----6----1--|
|-3----6----1--|
|-4----7----2--|
|-5----8----3--|
|-5----8----3--|
|-3----6----1--|

Back to verse:

 F    Eb
|-1----6--|
|-1----8--|
|-2----8--|x4
|-3----8--|
|-3----6--|
|-1-------|


Pre-chorus:

  G   D  Bm  F#
|-3---5--2---2--|
|-3---7--3---2--|
|-4---7--4---3--|
|-5---7--4---4--|
|-5---5--2---4--|
|-3----------2--|

  G    A#   F
|-3----6----1--|
|-3----6----1--|
|-4----7----2--|
|-5----8----3--|
|-5----8----3--|
|-3----6----1--|


Verse:

Gtr.1

  F    Eb
|-1----6--|
|-1----8--|
|-2----8--|x4
|-3----8--|
|-3----6--|
|-1-------|

Gtr.2:

Riff 1
Riff 2
Riff 1
Riff 2

Riff 1

|-13-13-13/11--11-11-11/10--10-10-10/8--8-8-8/6--6-6-5h6p5--|
|-----------------------------------------------------------|
|-----------------------------------------------------------|
|-----------------------------------------------------------|
|-----------------------------------------------------------|
|-----------------------------------------------------------|

Riff 2

|-13-13-13/11--11-11-11/10--10-10-10/8--8-8-8/6--6-6-5-----5-6-|
|------------------------------------------------------6-6-----|
|--------------------------------------------------------------|
|--------------------------------------------------------------|
|--------------------------------------------------------------|
|--------------------------------------------------------------|

The bridge thing:

  Gm     Gm
|-3------3--|
|-3------3--|
|-3------3--|x3
|-5------5--|
|-5------5--|
|-3------3--|

The fourth time play:

  F
|-1--|
|-1--|
|-2--|
|-3--|
|-3--|
|-1--|

verse:

  F    Eb
|-1----6--|
|-1----8--|
|-2----8--|
|-3----8--|
|-3----6--|
|-1-------|

Then play G and go into the pre-chorus:

  G   D  Bm  F#
|-3---5--2---2--|
|-3---7--3---2--|
|-4---7--4---3--|
|-5---7--4---4--|
|-5---5--2---4--|
|-3----------2--|

  G    A#   F
|-3----6----1--|
|-3----6----1--|
|-4----7----2--|
|-5----8----3--|
|-5----8----3--|
|-3----6----1--|

Then to this fill:

|-----------------------|
|-----------------------|
|-----------------------|
|----------8-10-8-------|
|-6h8p6-10--------10-8--|
|-----------------------|


Chorus:

    Gm   Am   A#   G#   Gm  Cm  A# Am Am  Eb
|---3----5----6----4----3---8---6--5--5---6--|
|---3----5----6----4----3---8---6--5--5---8--|
|---3----5----7----5----3---8---7--5--5---8--|x2
|---5----7----8----6----5---10--8--7--7---8--|
|---5----7----8----6----5---10--8--7--7---6--|
|-3-3--5-5--6-6--4-4--3-3---8---6--5--5------|

             Gm    Am   A#   G#   Gm  Cm  A# Am Am  Eb
|-6---6---6----3---5----6----4----3---8---6--5--5---6--|
|---8---8---8--3---5----6----4----3---8---6--5--5---8--|
|--------------3---5----7----5----3---8---7--5--5---8--|
|--------------5---7----8----6----5---10--8--7--7---8--|
|--------------5---7----8----6----5---10--8--7--7---6--|
|------------3-3---5-5--6-6--4-4--3-3-8---6--5--5------|

Then,for some time,there isn't any guitar.

Then around 5:40

|-5-5-5-5-5-5-6--6--6--6--6--6-5-5-5--|
|-5-5-5-5-5-5-6--6--6--6--6--6-5-5-5--|
|-6-6-6-6-6-6-7--7--7--7--7--7-6-6-6--|
|-7-7-7-7-7-7-8--8--8--8--8--8-7-7-7--|
|-7-7-7-7-7-7-8--8--8--8--8--8-7-7-7--|
|-5-5-5-5-5-5-6--6--6--6--6--6-5-5-5--|

|--------------------------------------|
|--------------------------------------|
|-------------------7------------------|x2
|-10-10-10-10-10-10-10b---7b-7b-7b-7b--|
|--------------------------------------|
|--------------------------------------|

End:

|-----------------------|
|-13b-15-13b-13-13b-11--|
|-----------------------|
|-----------------------|
|-----------------------|
|-----------------------|

That's it.Hope it helps.

            
            
Suggest correction
Creating personal tab
Creating personal tab
You can edit any tab online and save it as your Personal.

You can edit, replace or remove any tab part or add personal notes – all changes will be seen only by you.

Personal tabs can be accessed anytime from any device, even offline.
Learn more »
Give kudos to tab author, rate the tab!
1 2 3 4 5
comments
print report bad tab
2 comments total.
0 reply
mikedapike 100 Sep 26, 2013 01:39 PM

Hey there,
I think there are some mistakes concerning the chords. You can check out the Punctures chords I put up a little while ago for corrections. But nevertheless great taste and keep up working on Dot Hacker songs, it's worth it!
Greetz
mikedapike

guest
You may want to rate the tab now too:
select rating
Wanna post a correction for this tab? Suggest correction