Oops, an error
Loading. Please wait.

Fall Tab

version 1
version 1

Whole song

5,752 views 1 this week
2 commentsread comments
1 2 3 4 5
x 5
add to favorites
launch autoscroll
font size
0
reset
how to read this tab
guitar tuner
Autoscroll
slow
fast
+/-
esc
set tempo
stop
Help us to improve Ultimate-Guitar.com Take our survey!
×
Author
Difficulty
Tuning
Capo
intermediate
D A D F# A D
6th fret
Dotan - Fall

This tab is only for the acoustic part of the song.
There's also a electric guitar with an effect in a different tuning.

Capo 6

Tuning: Open D
D A D F# A F

p = pulloff



INTRO
     
F |---------------------------------------------------------------------------------------------------|
A |----------2-----------2------------2-----------2p0----------0-----------0-----------0------------0-|
F#|-------0-----------0------------0-----------0-----------0------------0-----------0-----------0-----|
D |----0-----------0------------0-----------0----------2-------------2-----------0-----------0--------|
A |-2-----------2------------2-----------2----------0-------------0-----------------------------------|
D |--------------------------------------------------------------------------5-----------5------------| (2x)

VERSES

F |---------------------------------------------------------------------------------------------------|
A |----------2-----------2------------2-----------2p0----------0-----------0-----------0------------0-|
F#|-------0-----------0------------0-----------0-----------0------------0-----------0-----------0-----|
D |----0-----------0------------0-----------0----------2-------------2-----------0-----------0--------|
A |-2-----------2------------2-----------2----------0-------------0-----------------------------------|
D |--------------------------------------------------------------------------5-----------5------------| (2x)

Then play this:

F |------------------------------------------------------------0--------------------------------------|
A |----------2-----------2------------2----------2p0--------4---------------0-----------0-----------0-|
F#|-------0-----------0------------0----------0----------0---------------0-----------0-----------0----|
D |----0-----------0------------0----------0----------0---------------0-----------0-----------0-------|
A |-2-----------2------------2----------2----------0---------------0----------------------------------|
D |----------------------------------------------------------------------------5-----------5----------|

F |---------------------------------------------------------------------------------------------------|
A |----------2------------2-----------2-----------2p0---------0------------0-----------0------------0-|
F#|-------0------------0-----------0-----------0----------0-------------0-----------0-----------0-----|
D |----0-----------0------------0-----------0----------2-------------2-----------0-----------0--------|
A |-2-----------2------------2-----------2----------0-------------0-----------------------------------|
D |---------------------------------------------------------------------------5-----------5-----------| 

F |------------------------|
A |----------0-----------0-|
F#|-------0-----------0----|
D |----0-----------0-------|
A |------------------------|
D |-5-----------5----------|


CHORUS 

Just strum these chords, listen to the song for the rhythm.

F |-------------------|
A |---2-----0-----0---|
F#|---0-----0-----0---|
D |---0-----2-----0---|
A |---2-----0-----0---|
D |---------------5---|

BRIDGE

Just strum-pick through these chords, listen to the song for the rhythm and pattern.

F |-------------------------|
A |---------------0---------|
F#|---0-----0-----3-----0---|
D |---4-----4-----4-----4---|
A |---0-----0-----0-----0---|
D |---2-----4-----5-----4---|


That's it, enjoy!



Suggest correction
comments
print report bad tab
2 comments total.
+1 reply
niick16 32 Oct 10, 2014 11:02 AM

didn't like this contribution

0 reply
niick16 32 Oct 14, 2014 10:40 AM

Tab incomplete. For no reason, this tablature is in no way accurate to the performance of Fall, as known by Dotan. I have seen him play this live and he doesn't play this with a Capo six let alone an electric guitar effect.

guest
You may want to rate the tab now too:
select rating
Wanna post a correction for this tab? Suggest correction