Oops, an error
Loading. Please wait.

Let The River In tab

by Dotan
4,922 views 24 this week
no commentswrite comment
1 2 3 4 5
x 4
add to favorites
×
Save as Personal and add changes to this tab that will be seen only by you. Learn more ›
×
You can save this tab as Personal to edit and correct it or add notes. All changes will be seen only by you. Learn more »
launch autoscroll
font size
0
reset
how to read this tab
guitar tuner
edit
Autoscroll
slow
fast
+/-
esc
set tempo
stop
Author
Let The River In
Dotan

[Intro]
e|---------------------------------------------------------------|
B|-------5---------------12--------------7-------------8---------|
G|---------0----------------0--------------0-------------0-------|
D|-----5-----5--------12------12-------7-----7-------9-----9-----|
A|---3-------------10----------------5-------------7-------------|
E|---------------------------------------------------------------|

e|---------------------------------------------5-----------------|
B|-------5---------------12--------------7-------7---------------|
G|---------0----------------0--------------0---------------------|
D|-----5-----5--------12------12-------7-----7-------------------|
A|---3-------------10----------------5---------------------------|
E|---------------------------------------------------------------|

(Verse is played same way as intro)
The coldest night came in in spring
The final frost was laid again
We draft the roof, froze the shoes, killed the flowers,
and stole the colour from the sun

[Chorus]
e|---------------------------------------------------------------|
B|-------8-------------8-------------5-------------7-------------|
G|---------0-------------0-------------0-------------0-----------|
D|-----9-----9-------9-----9-------5-----5-------7-----7---------|
A|---7-------------7-------------3-------------5-----------------|
E|---------------------------------------------------------------|

Oh let the river in,
Burst the damns and start again
Oh let the river in,
The will of men can't hold it in
Oh let the river in,
As the blood beneath my skin

e|---------------------------------------------------------------|
B|-------8-------------8-------------5---------7-----------------|
G|---------0-------------0-------------0-------------------------|
D|-----9-----9-------9-----9-------5-----5-----7-----------------|
A|---7-------------7-------------3-------------5-----------------|
E|---------------------------------------------------------------|

Let the river in,
Nature plays, nature wins.

(start to play below at the word 'wins')
e|---------------------------------------------------------------|
B|-------5---------------12--------------7-------------8---------|
G|---------0----------------0--------------0-------------0-------|
D|-----5-----5--------12------12-------7-----7-------9-----9-----|
A|---3-------------10----------------5-------------7-------------|
E|---------------------------------------------------------------|

e|---------------------------------------------5-----------------|
B|-------5---------------12--------------7-------7---------------|
G|---------0----------------0--------------0---------------------|
D|-----5-----5--------12------12-------7-----7-------------------|
A|---3-------------10----------------5---------------------------|
E|---------------------------------------------------------------|

[Verse]
(same as first verse)
e|---------------------------------------------------------------|
B|-------5---------------12--------------7-------------8---------|
G|---------0----------------0--------------0-------------0-------|
D|-----5-----5--------12------12-------7-----7-------9-----9-----|
A|---3-------------10----------------5-------------7-------------|
E|---------------------------------------------------------------|

e|---------------------------------------------5-----------------|
B|-------5---------------12--------------7-------7---------------|
G|---------0----------------0--------------0---------------------|
D|-----5-----5--------12------12-------7-----7-------------------|
A|---3-------------10----------------5---------------------------|
E|---------------------------------------------------------------|

You held on to my hands like a vice,
Turn the screw, turn them white,
But there's a point there's a limit where we brake,
Couldn't find if it's the quickest way

[Chorus]
e|---------------------------------------------------------------|
B|-------8-------------8-------------5-------------7-------------|
G|---------0-------------0-------------0-------------0-----------|
D|-----9-----9-------9-----9-------5-----5-------7-----7---------|
A|---7-------------7-------------3-------------5-----------------|
E|---------------------------------------------------------------|

Oh let the river in,
Burst the damns and start again
Oh let the river in,
The will of men can't hold it in
Oh let the river in,
As the blood beneath my skin

e|---------------------------------------------------------------|
B|-------8-------------8-------------5---------7-----------------|
G|---------0-------------0-------------0-------------------------|
D|-----9-----9-------9-----9-------5-----5-----7-----------------|
A|---7-------------7-------------3-------------5-----------------|
E|---------------------------------------------------------------|

Let the river in,
Nature plays, nature wins.

(start to play below at the 'wins')
e|---------------------------------------------------------------|
B|-------5---------------12--------------7-------------8---------|
G|---------0----------------0--------------0-------------0-------|
D|-----5-----5--------12------12-------7-----7-------9-----9-----|
A|---3-------------10----------------5-------------7-------------|
E|---------------------------------------------------------------|

e|---------------------------------------------5-----------------|
B|-------5---------------12--------------7-------7---------------|
G|---------0----------------0--------------0---------------------|
D|-----5-----5--------12------12-------7-----7-------------------|
A|---3-------------10----------------5---------------------------|
E|---------------------------------------------------------------|

[Bridge]
e|---------------------------------------------------------------|
B|-------5---------------12--------------7-------------8---------|
G|---------0----------------0--------------0-------------0-------|
D|-----5-----5--------12------12-------7-----7-------9-----9-----|
A|---3-------------10----------------5-------------7-------------|
E|---------------------------------------------------------------|

e|---------------------------------------------5-----------------|
B|-------5---------------12--------------7-------7---------------|
G|---------0----------------0--------------0---------------------|
D|-----5-----5--------12------12-------7-----7-------------------|
A|---3-------------10----------------5---------------------------|
E|---------------------------------------------------------------|

Ooooooohhhh

(I feel the breaking of bricks and water,
I feel the rhythm of the water...)

I feel the breaking of bricks and water,
I feel the rhythm of the water...

[Chorus]
(you can pluck here as you do during the first two choruses or if you want you 
can play chords
considering it gets more upbeat in these finals choruses: Em, C and D throughout the 
whole chorus)

e|---------------------------------------------------------------|
B|-------8-------------8-------------5-------------7-------------|
G|---------0-------------0-------------0-------------0-----------|
D|-----9-----9-------9-----9-------5-----5-------7-----7---------|
A|---7-------------7-------------3-------------5-----------------|
E|---------------------------------------------------------------|

Oh let the river in,
Burst the damns and start again
Oh let the river in,
The will of men can't hold it in
Oh let the river in,
As the blood beneath my skin
Let the river in,
Nature plays and nature wins

Oh let the river in,
Burst the damns and start again
Oh let the river in,
The will of men can't hold it in
Oh let the river in,
As the blood beneath my skin

e|---------------------------------------------------------------|
B|-------8-------------8-------------5---------7-----------------|
G|---------0-------------0-------------0-------------------------|
D|-----9-----9-------9-----9-------5-----5-----7-----------------|
A|---7-------------7-------------3-------------5-----------------|
E|---------------------------------------------------------------|

Let the river in,
Nature plays, nature wins.

(start to play below at the word 'wins')
e|---------------------------------------------------------------|
B|-------5---------------12--------------7-------------8---------|
G|---------0----------------0--------------0-------------0-------|
D|-----5-----5--------12------12-------7-----7-------9-----9-----|
A|---3-------------10----------------5-------------7-------------|
E|---------------------------------------------------------------|

e|---------------------------------------------5-----------------|
B|-------5---------------12--------------7-------7---------------|
G|---------0----------------0--------------0---------------------|
D|-----5-----5--------12------12-------7-----7-------------------|
A|---3-------------10----------------5---------------------------|
E|---------------------------------------------------------------|

            
            
Suggest correction
Creating personal tab
Creating personal tab
You can edit any tab online and save it as your Personal.

You can edit, replace or remove any tab part or add personal notes – all changes will be seen only by you.

Personal tabs can be accessed anytime from any device, even offline.
Learn more »
comments
print report bad tab
guest
You may want to rate the tab now too:
select rating
Wanna post a correction for this tab? Suggest correction