Oops, an error
Loading. Please wait.

Six By Six Bass Tab

7 views 6 this week
no commentswrite comment
1 2 3 4 5
3 more votes to show rating
add to favorites
launch autoscroll
font size
0
reset
guitar tuner
Autoscroll
slow
fast
+/-
esc
set tempo
stop
Help us to improve Ultimate-Guitar.com Take our survey!
×
Author
Difficulty
intermediate
About this tab version
This is the entire bass line of the song six by six. some people dont know how to read music, so here is the tab version. Was this info helpful? Yes No
page 1
G|------------|-----------|---------|-0-0-4-5-7-|-4-2-1---||
D|------2-----|-1---------|-----3-4-|-----------|-------4-||
A|-1--5-----5-|---4--1----|-1-4-----|-----------|---------||
E|------------|---------4-|---------|-----------|---------||
  1           2          3           4           5 
                                 /   
G|---8-8-6-3-|-3-1---4-|-5-----2-||-4-1-----|-------2-|-4-1-3---||
D|-3---------|-----4---|---2-3---||.----1-2-|-1-2-4---|-------2-||
A|-----------|---------|---------||.---------|---------|---------||
E|-----------|---------|---------||---------|---------|---------||
  6           7         8        \  9        10        11 
                        
G|-4-1-----|---------|-------1-|-4-4-----|-0-------|----------||
D|-----2---|---------|---------|-----3-4-|---3-1---|-----1-2--||
A|-------4-|-6-4-6-1-|-6-4-6---|---------|-------2-|-3-3------||
E|---------|---------|---------|---------|---------|----------||
  12        13        14        15        16        17
                                \
G|---------|-------4-|-5-5-4-4--||---------|------||
D|-3-1-----|---4-6---|---------.||---------|------||
A|-----2---|-1-------|---------.||-1-4-4-2-|2-2-2-||
E|-------4-|---------|----------||---------|------||
  18        19        20        / 21        22

G|-10-10-7-5-1-|---7-9-9-|-10--9--9--10--7--10--1-|-------|-10-4-4-1-2-4-||
D|-------------|---------|------------------------|-3-4-6-|--------------||
A|-------------|---------|------------------------|-------|--------------||
E|-------------|---------|------------------------|-------|--------------||
  23            24        25                       26      27

G|-----6-4-3-9-10-|-8-9-6-3-8-|-9-4-5-7-4-5-|5-12-9-12-7-|-10-4-4-1-2-4-||
D|-4-6------------|-----------|-------------|------------|--------------||
A|----------------|-----------|-------------|------------|--------------||
E|----------------|-----------|-------------|------------|--------------||
  28               29          30            31           32 
                      /
G|---------|----------||----3--1---|-------2-|-4-1---2-|-4-1-----||
D|---------|----------||.--------2-|-1-2-4---|-----2---|-----2-4-||
A|-------4-|------0-1-||.-1--------|---------|---------|---------||
E|---------|----4-----||-----------|---------|---------|---------||
  33        34        \ 35          36        37        38 

G|---------|-------1-|-4-1-----|-0-------|---------|---------||
D|-1---1-4-|-1-2-4---|-----2-3-|---3-1---|-----1---|-3-3-1---||
A|---4-----|---------|---------|-------2-|-3-5---7-|---------||
E|---------|---------|---------|---------|---------|-------4-||
  39        40        41        42        43        44
                               end of page 1

                                   page 2
                       \
G|---------|------------||---------|---------||---4-1---|-----0-2-||
D|---4-6---|---1-------.||---------|---------||-------2-|---3-----||
A|-1-----2-|-3-----0-1-.||-1-4-4-4-|-3-3-2-2-||-1-------|-3-------||
E|---------|-----4------||---------|---------||---------|---------||
  45        46         /  47        48         49!       50 

G|-4-1--2-|-4-1-----|---------|-------1-|-4-1-----|-0-------||
D|----2---|-----2---|-1---1-4-|-1-2-4---|-----2-4-|---3-1---||
A|--------|-------4-|---4-----|---------|---------|-------2-||
E|--------|---------|---------|---------|---------|---------||
  51       52        53        54        55        56  

G|---------|---------|-----0---|-------2-||-4-1-2-2|-------2-||
D|-----1-2-|-3-3-1---|---4-----|---2-3---||--------|-1-2-----||
A|-3-5-----|---------|-1-----2-|-3-------||--------|-----4---||
E|---------|-------4-|---------|---------||--------|---------||
  57        58        59        60         61!      62

G|-4-1-3---|-4-1-----|---------|-------1-3-|-3-1-1-1-|-1---- 4-||
D|-------2-|-----2---|-2---2---|-1---1-----|---------|---4-4---||
A|---------|-------4-|---4---1-|---4-------|---------|---------||
E|---------|---------|---------|-----------|---------|---------||
  63        64        65        66          67        68   

G|-5-4---------|-------|-4-1----|-4-1-----|-------2-|-4-1-3---||
D|-----4-2-1-2-|-2-----|----2-2-|-----2-2-|-1-2-4---|-------2-||
A|-------------|-----1-|--------|---------|---------|---------||
E|-------------|---0---|--------|---------|---------|---------||
  69            70      71       73        74        75

G|-4-1-----|---------|-------1-|-4-1-----|------------|-----------||
D|-----2---|-1---1---|-1---1---|-----2---|----3-3-3-3-|-3---------||
A|-------4-|---4---1-|---4-----|-------1-|------------|-----------||
E|---------|---------|---------|---------|------------|-----------||
  76        77        78        79        80           81 

G|-----------------|----------|----------------|---------|-------1-2-4-|--------------------||
D|-3----rest-3-3-3-|-3--------|-3---rest-3-3-3-|-3-------|-3-----------|------2rest---------||
A|-----------------|----------|----------------|---------|-------------|-|==============|---||
E|-----------------|----------|----------------|---------|-------------|--------------------||
  82                83         84               85        86             87-88            

  coda
G|-------------|-----------|----------------|--------------||
D|-------------|-----------|------rest2-----|--------3---3-||
A|-1- 4---4--2-|-2---2---2-|--|===========|-|-rest---------||
E|-------------|-----------|----------------|--------------||
 89             90          91               93                                        

G|----------------------------|---------|-------------------||
D|-3----rest----3---rest----3-|-3-------|-3-----rest--------||
A|----------------------------|---------|-----------------2-||
E|----------------------------|---------|-------------4-5---||
  94                           95        96                                        
                                  end :)



************************************

| /  Slide up
| \  Slide down

************************************
Suggest correction
Give kudos to tab author, rate the tab!
1 2 3 4 5
comments
print report bad tab
guest
You may want to rate the tab now too:
select rating
Wanna post a correction for this tab? Suggest correction