Oops, an error
Loading. Please wait.

Last Duet tab

97 views 1 this week
no commentswrite comment
1 2 3 4 5
3 more votes to show rating
add to favorites
×
Save as Personal and add changes to this tab that will be seen only by you. Learn more ›
×
You can save this tab as Personal to edit and correct it or add notes. All changes will be seen only by you. Learn more »
launch autoscroll
font size
0
reset
how to read this tab
guitar tuner
edit
Autoscroll
slow
fast
+/-
esc
set tempo
stop
Last Duet
From the album Doug Paisley

[INTRO]
                 A                               E                               A
e|------------------0-0--0-0------------------------0-0--0-0---------------------0--0-0--0-0-0-0--0-|
B|------------------2-2--2-2------------------------0-0--0-0---------------------2--2-2--2-2-2-2--2-|
G|------------------2-2--2-2------------------------1-1--1-1---------------------2--2-2--2-2-2-2--2-|
D|------------------2-2--2-2------------------------2-2--2-2---------------------2--2-2--2-2-2-2--2-|
A|-----0-4-2h4p2p0--0-0--0-0-------0h4p2p0----------2-2--2-2-------0h4p2p0-------0--0-0--0-0-0-0--0-|
E|-0-2-------------------------0h2---------0h2p0-0--0-0--0-0---0h2---------0h2p0--------------------|

[VERSE 1]

         A
How can someone
           D
Say it's okay?
          G                  
Take the time                
      F                      
as a sign                    
  A                   E   [Fill 1]
things aren't gonna change,  

e|-----------|
B|-0---------|
G|---0h1-----| Fill 1
D|-------2---|
A|---------2-|
E|-----------|
          G               D               A
that the world can't rearrange in just a day?

[VERSE 2]

             A
So why stay lonely
               D
and why stay blue?
             G
It's two to make
             F
and one to break,
    A                 E  [Fill 1]
and it might fall to you
    G                D                 A
to feel the way you want to until you love her

                 A                               E                               A
e|------------------0-0--0-0------------------------0-0--0-0---------------------0--0-0--0-0-0-0--0-|
B|------------------2-2--2-2------------------------0-0--0-0---------------------2--2-2--2-2-2-2--2-|
G|------------------2-2--2-2------------------------1-1--1-1---------------------2--2-2--2-2-2-2--2-|
D|------------------2-2--2-2------------------------2-2--2-2---------------------2--2-2--2-2-2-2--2-|
A|-----0-4-2h4p2p0--0-0--0-0-------0h4p2p0----------2-2--2-2-------0h4p2p0-------0--0-0--0-0-0-0--0-|
E|-0-2-------------------------0h2---------0h2p0-0--0-0--0-0---0h2---------0h2p0--------------------|


[VERSE 3]

              A
I'm tired of wondering
           D
where you are
               G
The words you left
         F
in your head
          A                      E  [Fill 1]
could explain the things you've done
      G             D                    A
but when you offer some, they're usually empty

[VERSE 4]

         A
How can something 
         D
seem so real
       G
Go so long
        F
Be so wrong
     A              E [Fill 1]
And you just walk away
     G                 D                 A
As though from day to day your heart was empty


[CHORUS]

           E
How can we go on
    G
for so long
F            C
In an empty house
          G
built by love?
           E
How can we go on
    G
for so long
F            C
In an empty house
          D
built by love?


[INTERLUDE]

   D                  E            
e|-2-0----------------0----------0-|
B|-----3-0------------0------0-----|
G|---------2-0--------1---0h1--1---|
D|-------------2------2------------|
A|--------------------2------------|
E|---------------2b---0------------|

                 A                               E                               A
e|------------------0-0--0-0------------------------0-0--0-0---------------------0--0-0--0-0-0-0--0-|
B|------------------2-2--2-2------------------------0-0--0-0---------------------2--2-2--2-2-2-2--2-|
G|------------------2-2--2-2------------------------1-1--1-1---------------------2--2-2--2-2-2-2--2-|
D|------------------2-2--2-2------------------------2-2--2-2---------------------2--2-2--2-2-2-2--2-|
A|-----0-4-2h4p2p0--0-0--0-0-------0h4p2p0----------2-2--2-2-------0h4p2p0-------0--0-0--0-0-0-0--0-|
E|-0-2-------------------------0h2---------0h2p0-0--0-0--0-0---0h2---------0h2p0--------------------|


[VERSE 5]

                A
Don't leave me sorry
                 D
Don't leave so blue
           G
Afraid to make 
         F
This mistake
          A             E 
What you make is up to you
     G                        D                  A
And now that we're finally through, it does not matter


[CHORUS]

           E
How can we go on
    G
for so long
F            C
In an empty house
          G
built by love?
           E
How can we go on
    G
for so long
F            C
In an empty house
          D
built by love?


[OUTRO]

   D                  E            
e|-2-0----------------0----------0-|
B|-----3-0------------0------0-----|
G|---------2-0--------1---0h1--1---|
D|-------------2------2------------|
A|--------------------2------------|
E|---------------2b---0------------|

                 A                               E                               A
e|------------------0-0--0-0------------------------0-0--0-0-------------------------------0|
B|------------------2-2--2-2------------------------0-0--0-0-----------------------------2--|
G|------------------2-2--2-2------------------------1-1--1-1---------------------------2----|
D|------------------2-2--2-2------------------------2-2--2-2-------------------------2------|
A|-----0-4-2h4p2p0--0-0--0-0-------0h4p2p0----------2-2--2-2-------0h4p2p0-------0----------|
E|-0-2-------------------------0h2---------0h2p0-0--0-0--0-0---0h2---------0h2p0------------|

            
            
Suggest correction
Creating personal tab
Creating personal tab
You can edit any tab online and save it as your Personal.

You can edit, replace or remove any tab part or add personal notes – all changes will be seen only by you.

Personal tabs can be accessed anytime from any device, even offline.
Learn more »
Give kudos to tab author, rate the tab!
1 2 3 4 5
comments
print report bad tab
guest
You may want to rate the tab now too:
select rating
Wanna post a correction for this tab? Suggest correction