Oops, an error
Loading. Please wait.

Hip Hop Groove Bass Tab

5,369 views 12 this week
no commentswrite comment
1 2 3 4 5
please rate
add to favorites
launch autoscroll
font size
0
reset
guitar tuner
Autoscroll
slow
fast
+/-
esc
set tempo
stop
Help us to improve Ultimate-Guitar.com Take our survey!
×
Author
This is the tab for the groove that D.Wimbish created on his "Rockhouse Method Dvd" with 
Calhoun ( http://www.youtube.com/watch?v=LJRlHfpTJZc ). The Tuning is E-A-D-G.

  1 & 2 & 3 & 4 & 1 & 2 & 3 & 4 & 1 & 2 & 3 & 4 & 1 & 2 & 3 & 4 & 1 & 2 & 3
|--------------------------------------------------------------------------|
|-----3---------------3---------------3---------------3---------------3----|
|---5---------------5---------------5---------------5---------------5------|
|-3---------------3---------------3---------------3---------0-1-2-3--------|

 & 4 & 1 & 2 &   3  & 4 & 1 & 2 & 3 & 4 & 1 & 2 & 3 & 4 & 1 & 2 & 3 & 4
---------------1212-1212------------------------------------------------|
-----------3-3/---------------3---------------3-----------5-/-3---------|
---------5------------------5---------------5---------------------------|
-------3------------------3---------------3---------0-1-2-3-/-1---------|

That's about it! It's a pretty simple groove, but it sounds great and you can play a lot 
variations on this theme. I hope you'll like it!
http://www.dougwimbish.com/
Suggest correction
Give kudos to tab author, rate the tab!
1 2 3 4 5
comments
print report bad tab
guest
You may want to rate the tab now too:
select rating
Please do not post tabs as comments. Select "correction" instead!