Oops, an error
Loading. Please wait.

History Chords

433 views 39 this week
no commentswrite comment
1 2 3 4 5
x 3
add to favorites
launch autoscroll
font size
0
reset
transpose
0
reset
simplify chords
display chords
guitar tuner
Autoscroll
slow
fast
+/-
esc
set tempo
stop
Help us to improve Ultimate-Guitar.com Take our survey!
×
Author
Difficulty
intermediate
"History"

[Intro]

   G             C G C G       C G C G         Gmaj9       C
e|---------------------------------------------------------------------
B|-------0-------1p0-1p0-------1p0-1p0---------------3-------1-------1-
G|---0-------0-------------0-------------0-------0-------0-------0-----
D|-----0-------0-2p0-2p0-----0-2p0-2p0-----0-------4-------2-------2---
A|-------------------------------------------3s5-------3-------3-------
E|-3-------3-------------3-------------3-------------------------------

e|-----------------|
B|-------1-------1-|
G|---0-------0-----|
D|-----2-------2---|
A|-3-------3-------|
E|-----------------|

[Verse 1]

G          C/B     C/G
History is passing by
Am                 Em             Gmaj9   C/G
Searching eyes all looking at the ancient sky
G              C/B    C/G
River carves a canyon wide
Am             Em              Gmaj9    C/G
Running to the valley from the mountain high

[Pre-chorus]

Gmaj9                             Am
Way up here a soft wind is always blowing
Gmaj9                            A Asus4  A
Down to where the forest is ever growing

[Chorus]

G     Am  G/B C
Don't you believe
Gmaj9                           Cmaj7
Man is but a small grain in the sands of time
G     Am  G/B C
Don't you believe
Gmaj9                        Cmaj7
We are merely seconds to the years gone by
      Em6
Let's make 'em shine

[Intro riff]

[Verse 2]

G                   C/B     C/G
Coast to coast from home to home
Am          Em                 Gmaj9   C/G
Riding over plains and passing ancient stones
G                   C/B       C/G
She gallops and she shakes my bones
Am                    Em            Gmaj9  C/G
The trees are humming melodies I've always known

[Pre-chorus]

Gmaj9                             Am
Way up here a soft wind is always blowing
Gmaj9                            A Asus4   A
Down to where the forest is ever young

[Chorus]

G     Am  G/B C 
Don't you believe
Gmaj9                           Cmaj7
Man is but a small grain in the sands of time
G     Am  G/B C
Don't you believe
Gmaj9                        Cmaj7
We are merely seconds to the years gone by
      Em6
Let's make 'em shine
       Cmaj7
(We'll make 'em shine)
      A9           Cmaj7
Let’s make ‘em shine

[Outro]

   G             C G C G       C G C G         Gmaj9   C/G
e|-----------------------------------------------------0---|
B|-------0-------1p0-1p0-------1p0-1p0---------------3-1---|
G|---0-------0-------------0-------------0-------0-----0---|
D|-----0-------0-2p0-2p0-----0-2p0-2p0-----0-------4---0h2-|
A|-------------------------------------------3s5-------3---|
E|-3-------3-------------3-------------3---------------3---|

Chords:
Gmaj7: x54035
C/B:   x20010
C/G:   332010
Asus4: x02230
G/B:   x20033 
Cmaj7: x32000 or x35453
Em6:   x42000
A9:    x02000
Suggest correction
Give kudos to tab author, rate the tab!
1 2 3 4 5
comments
print report bad tab
guest
You may want to rate the tab now too:
select rating
Wanna post a correction for this tab? Suggest correction