Oops, an error
Loading. Please wait.

Fridays Dust tab

version 1
version 1

Whole song

by Doves
2,033 views 3 this week
2 commentsread comments
1 2 3 4 5
x 3
add to favorites
×
Save as Personal and add changes to this tab that will be seen only by you. Learn more ›
×
You can save this tab as Personal to edit and correct it or add notes. All changes will be seen only by you. Learn more »
launch autoscroll
font size
0
reset
how to read this tab
guitar tuner
edit
Autoscroll
slow
fast
+/-
esc
set tempo
stop
Doves - Friday?s dust

Intro (Play about 8 times)
E--------------|
B----3-----3---|
G---0-0---0-0?-|
D--0---0-0---0-|
A--------------|
E-3-----1------|

Verse (Play 4 times)
E--------------------------|
B----3-----3-----4-----6---|
G---0-0---0-0---3-3---0-0--|
D--0---0-0---0-5---5-3---3-|
A-------------6-----5------|
E-3-----1------------------|

Chorus
E-------------------------------------------------|
B----3-----3-----2-----3-----3-----3-----2-----2--|
G---0-0---2-2---0-0---0-0---0-0---2-2---0-0---0-0-|
D--0---0-0---0-0---0-0---0-0---0-0---0-0---0-0---0|
A-1-----0-----------0-----1-----0-----------0-----|
E-------------4-----------------------4-----------|

E-------------------------------------|
B----3-----3-----2-----3-----3-----3--|
G---0-0---2-2---0-0---0-0---0-0---2-2-|
D--0---0-0---0-0---0-0---0-0---0-0---0|
A-1-----0-----------0-----1-----0-----|
E-------------4-----------------------|


E-------------------------|
B-------------------------|
G----2-----2-----2-----2--|
D---0-0---0-0---0-0---0-0-|
A--0---0-0---0-0---0-0---0|
E-4-----4-----4-----4-----|
Play part in 1st chorus

E-------------------------|
B----2-----2-----2-----2--|
G---2-2---2-2---2-2---2-2-|
D--0---0-0---0-0---0-0---0|
A-------------------------|
E-4-----4-----4-----4-----|
Play part in 2nd chorus

Then play the intro 4 times

Intro


Verse

Friday?s dust
Turned into a Saturdays
It wasn?t meant to be this way
It wasn?t meant to end so late


Verse

Friday?s trust
A deal not broken honestly
Perhaps it?s just a game they played
Tell me they?ve not flown away


Chorus

All the hope and all the wonder
All the strength that they can muster
Won?t go
They won?t get me down


Verse

There desire
It seems they?ve got designs on me
They never want me honestly
They try to take me foolishly


Chorus

And all the toys and creature comforts
All the dreams that they can rupture
Won?t go


Verse

Friday?s dust takes all the love we own
Suggest correction
Creating personal tab
Creating personal tab
You can edit any tab online and save it as your Personal.

You can edit, replace or remove any tab part or add personal notes – all changes will be seen only by you.

Personal tabs can be accessed anytime from any device, even offline.
Learn more »
Give kudos to tab author, rate the tab!
1 2 3 4 5
comments
print report bad tab
2 comments total.
0 reply
106piecesofchee 30 Nov 18, 2013 07:02 AM

Intro:

D#-------------|
B----3-----3---|
G---3-3---3-3--|
D--0---0-0---0-|
A--------------|
E-3-----1------|


Verse:
D#----------0-----2--------|
B----3-----3----3-3---3-3--|
G---3-3---3-3--3---3-2---2-|
D--0---0-0---01-----0------|
A--------------------------|
E-3-----1------------------|


Chorus
D#------------------------------------------------|
B----3-----3-----2-----3-----3-----3-----2-----2--|
G---0-0---0-0---0-0---0-0---0-0---0-0---0-0---0-0-|
D--0---0-0---0-2---2-0---0-0---0-0---0-2---2-2---2|
A-3-----1-----0-----------3-----1-----0-----0-----|
E-------------------3-----------------------------|

D#------------------------------------|
B----3-----3-----2-----3-----3-----3--|
G---0-0---0-0---0-0---0-0---0-0---0-0-|
D--0---0-0---0-2---2-0---0-0---0-0---0|
A-3-----1-----0-----------3-----1-----|
E-------------------3-----------------|

D#------------------------|
B----2-----2-----2-----2--|
G---0-0---0-0---0-0---0-0-|
D--2---2-2---2-2---2-2---2|
A-0-----0-----0-----0-----|
E-------------------------|


Bridge-thing after 2nd chorus:

D#---------------|        D#-------------|
B----1-----0-----| B----1--1--1---|
G---0-0---0-0----| G---0-0--0--0--|
D--1---1-1---1---| x7 D--1---1--1--1-|
A-3-----3-----3--| A-3------------|
E----------------| E--------------|

guest
Wanna post a correction for this tab? Suggest correction