Oops, an error
Loading. Please wait.

The Man Who Told Everything tab

version 1
version 1

Whole song

Interactive

by Doves
5,137 views 3 this week
1 commentread comment
1 2 3 4 5
x 4
add to favorites
×
Save as Personal and add changes to this tab that will be seen only by you. Learn more ›
×
You can save this tab as Personal to edit and correct it or add notes. All changes will be seen only by you. Learn more »
launch autoscroll
font size
0
reset
how to read this tab
guitar tuner
edit
Autoscroll
slow
fast
+/-
esc
set tempo
stop
Author
the man who told everything - doves

got really really bored of seeing the wrong version of this song everywhere so i decided 
put the correct version up (at least i hope its correct)
the wrong versions start with 2 bars of eminor???? 6/8 not 4/4!

this is the acoustic part only, will tab the second guitar soon
NO CAPO REQUIRED!

intro

  Fminor               G#major
e-1-1-1-1-1-1--1-1-1-1-4-4-4-4-4-4--4-4-4-4-|
D-1-1-1-1-1-1--1-1-1-1-4-4-4-4-4-4--4-4-4-4-|
G-1-1-1-1-1-1--1-1-1-1-5-5-5-5-5-5--5-5-5-5-|
B-2-2---2---2--2---2---6-6---6---6--6---6---|
A-2-2---2---2--2---2---6-6---6---6--6---6---|
E-1-1---1---1--1---1---4-4---4---4--4---4---|

  C#major                        C7
e-9--9--9--9--9--9---9--9--9--9--8--8--8-8--8-8---8--8-8--8-|
D-9--9--9--9--9--9---9--9--9--9--8--8--8-8--8-8---8--8-8--8-|
G-10-10-10-10-10-10--10-10-10-10-9--9--9-9--9-9---9--9-9--9-|
B-11-11----11----11--11----11----8--8----8----8---8----8----|
A-11-11----11----11--11----11----10-10---10---10--10---10---|
E-9--9-----9-----9---9-----9-----8--8----8----8---8----8----|

repeat untill "get out of bed, pick up the phone..."

then play...

e--------------------------------------|
D--------------------------------------|
G------8-8-8-8-------6-6-6-6-----------|
B------8-8-8-8-------6-6-6-6-----------|
A--4-4-6-6-6-6---6-6-4-4-4-4---4-4-4-4-|
E-6-6-----------4-4-----------2-2-3-3--|

e--------------------------------------|
D--------------------------------------|
G-5-5-5-5--5-5--5-5-5-5--5-5-----------|     play twice
B-5-5-5-5--5-5--5-5-5-5--5-5-----------|
A-3-3-3-3--3-3--3-3-3-3--3-3-----------|
E--------------------------------------|

hope that sounds better, any corrections/questions email alexmac540@aol.com
more tabs on the way

            
            
Suggest correction
Creating personal tab
Creating personal tab
You can edit any tab online and save it as your Personal.

You can edit, replace or remove any tab part or add personal notes – all changes will be seen only by you.

Personal tabs can be accessed anytime from any device, even offline.
Learn more »
comments
print report bad tab
1 comment total.
0 reply
fakegrapes 120 Aug 07, 2006 05:29 AM

i remember an fminor as this :) :

Fminor
e-1-1-1-1-1-1--1-1-1-|
D-1-1-1-1-1-1--1-1-1-|
G-1-1-1-1-1-1--1-1-1-|
B-3-3---3---3--3---3-|
A-3-3---3---3--3---3-|
E-1-1---1---1--1---1-|

guest
You may want to rate the tab now too:
select rating
Wanna post a correction for this tab? Suggest correction