Oops, an error
Loading. Please wait.

3 Suns And 1 Star Tab

version 2
version 2

Whole song

  • Down is an amazing band and this song is kick ass ... Show more
by Down
28 views 1 this week
no commentswrite comment
1 2 3 4 5
3 more votes to show rating
add to favorites
launch autoscroll
font size
0
reset
how to read this tab
guitar tuner
Autoscroll
slow
fast
+/-
esc
set tempo
stop
Help us to improve Ultimate-Guitar.com Take our survey!
×
Author
About this tab version
Down is an amazing band and this song is kick ass so there should definately be a good tab out there for it. Some of the intro is too hard to replicate but once the drums come in is where it gets fun. This tab covers the entire song (excluding the part mentioned earlier). Hope this helps you. Rock ON. Was this info helpful? Yes No
"Down"
"3 Suns and 1 Star" off the Album "Over the Under"(Track1)


[Intro](x4)

C#|---------------------------------------------------------------------------|
G#|---------------------------------------------------------------------------|
E |--7--7--7--7--------7------------------------------------------------------|
B |--7--7--7--7--------7------------------------------------------------------|
F#|--5--5--5--5--8--5--5--5--6--6--5--5---9p7--7--9/10------------------------|
C#|-----*-----*-----*-----*--6--6--5--5---9p7--7--9/10------------------------|
                                *     *        *
C#|---------------------------------------------------------------------------|
G#|---------------------------------------------------------------------------|
E |--7--7--7--7---------------------------------------------------------------|
B |--7--7--7--7--------3------------------------------------------------------|
F#|--5--5--5--5--3--5-----5---5---5--3-----3--5--6---6---5--------------------|
C#|-----*-----*---------------*---------5------------6---5--------------------|


[Verse]

C#|---------------------------------------------------------------------------|
G#|---------------------------------------------------------------------------|
E |--7---7--------------------------------------------------------------------|
B |--7---7--------------------------------------------------------------------|
F#|--5---5------------(this phrase x7)----6---5\------------------------------|(x2)
C#|---------0--0--0-----------------------6---5\------------------------------|
            *  *  *
C#|---------------------------------------------------------------------------|
G#|---------------------------------------------------------------------------|
E |---------------------------------------------------------------------------|
B |---------------------------------------------------------------------------|
F#|---0---0-0-0-0--5---5-5-5-5--10---10-10-10-10--9---9-9-9-9-----------------|(x4)
C#|---0---0-0-0-0--5---5-5-5-5--10---10-10-10-10--9---9-9-9-9-----------------|


Repeat Intro
then verse again
then Intro.....again


"WATCHING OVER MEEEEEE!!!!"

C#|---------------------------------------------------------------------------|
G#|---------------------------------------------------------------------------|
E |---------------------------------------------------------------------------|
B |---------------------------------------------------------------------------|
F#|---------5/7---5-----------3/5---3------------3----------3----0------------|
C#|--3--5--------------3--5----------------3--5------5b6b5--3----0------------|

C#|---------------------------------------------------------------------------|
G#|---------------------------------------------------------------------------|
E |---------------------------------------------------------------------------|
B |---------------------------------------------------------------------------|
F#|---0----------------3---0----3---3-3-3-3-3---3-3-3-3---6--5--6--5--6--5----|
C#|---0---5b6b5--3--5------0----3---3-3-3-3-3---3-3-3-3---6--5--6--5--6--5----|
      *

C#|---------------------------------------------------------------------------|
G#|---------------------------------------------------------------------------|
E |---------------------------------------------------------------------------|
B |---------------------------------------------------------------------------|
F#|---3---3-3-3-3-3---3-3-3-3-3---3-3-3-3-3---3-3-3-3-------------------------|
C#|---3---3-3-3-3-3---3-3-3-3-3---3-3-3-3-3---3-3-3-3-------------------------|


C#|---------------------------------------------------------------------------|
G#|---------------------------------------------------------------------------|
E |---------------------------------------------------------------------------|
B |---------------------------------------------------------------------------|
F#|---5/7---5---------------3/5--3-----------3-----------3----0---------------|
C#|-------------0--0--3--5-------------3--5------5b6b5---3----0---------------|

C#|---------------------------------------------------------------------------|
G#|---------------------------------------------------------------------------|
E |---------------------------------------------------------------------------|
B |---------------------------------------------------------------------------|(repeat this idea x2)
F#|---0-----------------3--0----3---3-3-3-3-3---3-3-3-3---6--5--6--5--6--5----|
C#|---0---5b6b5---3--5-----0----3---3-3-3-3-3---3-3-3-3---6--5--6--5--6--5----|
      *

C#|---------------------------------------------------------------------------|
G#|---------------------------------------------------------------------------|
E |---------------------------------------------------------------------------|
B |---------------------------------------------------------------------------|
F#|---3---3-3-3-3-3---3-3-3-3-3---3-3-3-3-3---3-3-3-3-------------------------|
C#|---3---3-3-3-3-3---3-3-3-3-3---3-3-3-3-3---3-3-3-3-------------------------|



C#|------------------------------------------------------------------------------|
G#|------------------------------------------------------------------------------|
E |------------------------------------------------------------------------------|(x4)
B |------------------------------------------------------------------------------|
F#|---5/7--5--------------3/5--3------------7--5--7--8--7--5--5b7---3~-----------|
C#|-------------0-0-3-5------------0-0-3-5------------------------------0-0-3-5--|




C#|---------------------------------------------------------------------------|
G#|---------------------------------------------------------------------------|
E |---------------------------------------------------------------------------|
B |---------------------------------------------------------------------------|
F#|--3---3--3-3-3---3---3--3-3-3---6--5--6--5--6--5---3--3-3-3-3---0------6p5-|
C#|--3---3--3-3-3---3---3--3-3-3---6--5--6--5--6--5---3--3-3-3-3---0------6p5-|
                                                                   *

C#|---------------------------------------------------------------------------|
G#|---------------------------------------------------------------------------|
E |---------------------------------------------------------------------------|
B |---------------------------------------------------------------------------|
F#|--6--5--6--5--6--5---3--3-3-3-3---0-----0-0-----(x2)-----------------------|
C#|--6--5--6--5--6--5---3--3-3-3-3---0-----0-0--------------------------------|
                                     *     * *


C#|---------------------------------------------------------------------------|
G#|---------------------------------------------------------------------------|
E |---------------------------------------------------------------------------|
B |---------------------------------------------------------------------------|
F#|--6--5--6--5--6--5------(slam straight into intro again)-------------------|
C#|--6--5--6--5--6--5---------------------------------------------------------|

Verse with a twist instead of going 6  5/   Do....
C#|---------------------------------------------------------------------------|
G#|---------------------------------------------------------------------------|
E |----8--8--8--7---7---------------------------------------------------------|
B |----8--8--8--7---7---------------------------------------------------------|
F#|----6--6--6--5---5---------------------------------------------------------|
C#|---------------------0--0--0-----------------------------------------------|
                        *  *  *


(mix of back and fourth Intro and verse but just listen to the song u already know the notes to play)


************************************

| p  Pull-off
| b  Bend
| /  Slide up
| \  Slide down
| ~  Vibrato

************************************
Suggest correction
Give kudos to tab author, rate the tab!
1 2 3 4 5
comments
print report bad tab
guest
You may want to rate the tab now too:
select rating
Wanna post a correction for this tab? Suggest correction