Oops, an error
Loading. Please wait.

Bury Me In Smoke Tab

version 1
version 1

Whole song

Interactive

by Down
60,613 views 75 this week
3 commentsread comments
1 2 3 4 5
x 13
add to favorites
launch autoscroll
font size
0
reset
how to read this tab
guitar tuner
Autoscroll
slow
fast
+/-
esc
set tempo
stop
Author
Tuning
B F# B E G# C#
[Riff 1]
C#|---------------------------------------------------------|
G#|---------------------------------------------------------|
E |---------------------------------------------------------|
B |---------------------------------------------------------|
F#|---10\-----------7\---------------10\----------7\--------|
B |-0------0-5\---0-----0-2b3r2~---0------0-5\--0-----0-/5~-|
    *      *      *     *          *      *     *     *

[Riff 2]
C#|--------------------------------------------------------|
G#|--------------------------------------------------------|
E |--------------------------------------------------------|
B |--------------------------------------------------------|
F#|-0--0--0--00-00--0--0--00--0--0--0--00--0----\5---\5----|
B |-0--0--0--00-00--0--0--00--0--0--0--00--0--0----0----6~-|
             ** **    

[Riff 3]
C#|--------------------------------------------------------------------------|
G#|--------------------------------------------------------------------------|
E |--5\7--7-7-7--7-7--7\9--9-9-9--9-9--9\10-10-10-10--10-10-10\9--9-9-9--9-9-|
B |--5\7--7-7-7--7-7--7\9--9-9-9--9-9--9\10-10-10-10--10-10-10\9--9-9-9--9-9-|
F#|--3\5--5-5-5--5-5--5\7--7-7-7--7-7--7\8---8--8--8--8--8--8\\7--7-7-7--7-7-|
B |--------------------------------------------------------------------------|

[Riff 4]
C#|------------------------------|
G#|------------------------------|
E |------------------------------|
B |------------------------------|
F#|---10\-----------7\-----------|
B |-0------0-5\---0-----0-2b3r2~-|
    *      *      *     *

[Riff 5]
C#|----------------------------------|
G#|----------------------------------|
E |----------------------------------|
B |----------------------------------|
F#|----------------------------------|
B |-0-0-0-0-0-0-0-\7~-0-5b6r5-3~-----|
  * * * * * * *     *

[Riff 5-1]
C#|----------------------------------|
G#|----------------------------------|
E |----------------------------------|
B |----------------------------------|
F#|----------------------------------|
B |-0-0---0-0-0-0-\7~----------------|
    * *   * * * *

[Riff 5-2]
C#|----------------------------------|
G#|----------------------------------|
E |----------------------------------|
B |----------------------------------|
F#|----------------------------------|
B |-0-0---0-0-0-0-\7~-0-5b6r5-3~-----|
    * *   * * * *     *

[Solo]
  B Pentatonic Minor
  Effects: Wah & Chorus
        [Box 1]
C#|--1--|-----|-----|--2--| -1st string
G#|--4--|-----|-----|--5--|
E |--2--|-----|--3--|-----|
B |--5--|-----|--1--|-----|
F#|--3--|-----|--4--|-----|
B |--1--|-----|-----|--2--| -6th string
     10th fret

        [Box 2]
C#|-----|--2--|-----|--3--| -1st string
G#|-----|--5--|-----|--1--|
E |--3--|-----|--4--|-----|
B |--1--|-----|-----|--2--|
F#|--4--|-----|-----|--5--|
B |-----|--2--|-----|--3--| -6th string
      12th fret

Song Structure:

  Riff 1 x 5
  Riff 2 x 6
  Riff 3 x 1
  Riff 2 x 1
  Riff 3 x 1
  Riff 2 x 1
  Riff 3 x 1
  Riff 4 x 4
  Riff 2 x 6
  Riff 3 x 1
  Riff 2 x 1
  Riff 3 x 1
  Riff 2 x 1
  Riff 3 x 1
  Riff 4 x 12
  Riff 5 x 8
[Solo] Riff 5 x 12
  Riff 5-1 x 4
  Riff 5 x 10
  Riff 5-1 x 4
  Riff 5-2 till fade....



************************************

| \  Slide down
| r  Release
| b  Bend
| /  Slide up
| ~  Vibrato

************************************
Suggest correction
comments
print report bad tab
3 comments total.
0 reply
jsik6 10 Jan 01, 2008 11:09 AM

Works for me; thanks....

-1 reply
cooljew 153 Jun 22, 2009 12:48 AM

yeah not to shabby, these riffs sound way better with a drummer backin me up

0 reply
ercover 10 Feb 08, 2013 06:19 AM

Perfect! Thanks

guest
You may want to rate the tab now too:
select rating
Wanna post a correction for this tab? Suggest correction