Oops, an error
Loading. Please wait.

Chills Chords

version 1
version 1

Whole song

9,404 views 18 this week
no commentswrite comment
1 2 3 4 5
x 8
add to favorites
launch autoscroll
font size
0
reset
transpose
0
reset
display chords
guitar tuner
Autoscroll
slow
fast
+/-
esc
set tempo
stop
Help us to improve Ultimate-Guitar.com Take our survey!
×
Author
-------------------------------------------------------------------------------
                             Chills - Down With Webster
----------------------------------------------------

Tabbed by: Kamdude

Tuning: Standard

Chords used: Bm, G, D

     Bm          G            D
e|----2----------3------------2-----------------------|
B|----3----------3------------3-----------------------|
G|----4----------0------------2-----------------------|
D|----4----------0------------0-----------------------|
A|----2----------2------------------------------------|
E|---------------3------------------------------------|




Theres this mini intro part:

e|----------------------------------------------------------|
B|----------------------------------------------------------|
G|----------------------------------------------------------|
D|----------------------------------------------------------|
A|--9--9--9--10-10-10-7--7---x4-----------------------------|
E|--10-10-10-10-10-10-10-10---------------------------------|

Then this repeats for most of the song with the chords:

e|--2-2-2-3-3-3-0-0------------------------------------|
B|--3-3-3-3-3-3-3-3------------------------------------|
G|-----------------------------------------------------|
D|-----------------------------------------------------|
A|-----------------------------------------------------|
E|-----------------------------------------------------|



Bm           G               D
I fell, like soldiers on the front line.
      Bm        G                 D
Under your spell, in the magic you inspire.
       Bm     G         D
Every farewell, sets me on fire
      Bm                  G                       D
And I find it all so funny, Like a joke without a punchline.


*Single strums sound good here:


   Bm                              G
My heart's racing, trying to catch up to you,
    D
The light that you let off is gold.
  Bm                          G
I can't shake this feeling it fills the room,
      D
These chills didn't come from the cold.
              

               Bm       G        D
They came from yoooooooouuuuuuuuuu
               Bm       G        D
They came from yoooooooouuuuuuuuuu



Single strums for first two lines here:


Bm          G             D
I hear your voice like an ocean,
        Bm   G             D    
Washing over me I'm frozen stuck in time.
    Bm      G        D
And I swear, I never seen the likes of you before.
     Bm                  G                  D
And I promise this ain't typical, doesn't happen every night.


   Bm                              G                                  
My heart's racing, trying to catch up to you,
    D
The light that you let off is gold.
  Bm                          G
I can't shake this feeling it fills the room,
      D
These chills didn't come from the cold.
               


               Bm       G        D
They came from yoooooooouuuuuuuuuu
               Bm       G        D
They came from yoooooooouuuuuuuuuu
   Bm                             G
My world came crashing down right under you,
      D
These chills didn't come from the cold,
               Bm       G        D
They came from yoooooooouuuuuuuuuu

    Bm                             G                  D    repeat chords   
See I was doing my own thing 'till you came across my path,
Made me feel like singing, but usually I rap.
But how can I explain the things you do to me,
I'm acting all the proper words and phrases,
Hold up lemme get back to that, 
Because I'm awe struck, star struck,
Turned around from my heart, look.
Let you know that from bar one,
You are the one and that's bar none,
I'll try the best to control myself,
At least that's what I told myself,
But inside I just bought a farm,
You're the one that just sold that house, 
Got my heart in that headlock,
I'mm hosing on and you hold the belt,
I mean this in the best way when I tell you that you're cold as hell
That makes no sense, but neither does this feeling,
I know that my time is short, but next to you, I touch the ceiling.

 Bm                              G                                  
My heart's racing, trying to catch up to you,
    D
The light that you let off is gold.
  Bm                          G
I can't shake this feeling it fills the room,
      D
These chills didn't come from the cold.
               


               Bm       G        D
They came from yoooooooouuuuuuuuuu
               Bm       G        D
They came from yoooooooouuuuuuuuuu
   Bm                             G
My world came crashing down right under you,
      D
These chills didn't come from the cold,
               Bm       G        D
They came from yoooooooouuuuuuuuuu
Suggest correction
comments
print report bad tab
guest
You may want to rate the tab now too:
select rating
Wanna post a correction for this tab? Suggest correction