Oops, an error
Loading. Please wait.

Rich Girl Tab

11,463 views 1 this week
1 commentread comment
1 2 3 4 5
accurate
x 6
add to favorites
launch autoscroll
font size
0
reset
how to read this tab
guitar tuner
Tab Pro tools
  • play this tab
  • loop segment
  • change instrument
  • show fretboard
  • metronome
×
Best way to learn
"Rich Girl"
Autoscroll
slow
fast
+/-
esc
set tempo
stop
Difficulty
intermediate
-------------------------------------------------------------------------------
                             RICH GIRL$ - Down With Webster
-------------------------------------------------------------------------------
Tabbed by: Nick Hepburn
Email: nick8_gnr@hotmail.com

Tuning: Standard
Key of: F major

Chorus (Hold Chords, Bass Notes on Beat 4)
   F           Dm          Bb           Gm     C5
e|-----------|-----------|--6--------|--3----------|
B|--10-------|--6--------|--6--------|--3----------|
G|--10-------|--7--------|--7--------|--3------5-5-|
D|--10-------|--7--------|--8--------|--5------5-5-|
A|--8------7-|--5--------|--8--------|--5------3-3-|
E|-----------|---------8-|--6------5-|--3----------|

Verse (Rhythm: Dotted Quarter, Eighth Tied to Half)
    F    Fmaj/E    Dm   Dm7/C     Bb   Bbmaj7/A   Gm     C5
e|---------------|--------------|--6----6-------|--3----------|
B|--10---10------|--6----6------|--6----6-------|--3----------|
G|--10---10------|--7----5------|--7----7-------|--3------5-5-|
D|--10---10------|--7----7------|--8----8-------|--5------5-5-|
A|--8----7-------|--5----5------|--8----8-------|--5------3-3-|
E|---------------|-------8------|--6----5-------|--3----------|
Pre-Chorus
e|---------------------------------------------------|
B|---------------------------------------------------|
G|--10-10-10-10-10-10-10-10-10-10-10-10-10-10-10-10--|
D|--x--x--x--x--x--x--x--x--x--x--x--x--x--x--x--x---|
A|--8--8--8--8--8--8--8--8--8--8--8--8--8--8--8--8---|
E|---------------------------------------------------|

Bridge
    F    Fmaj/E    Dm   Dm7/C     Bb   Bbmaj7/A   Gm     C5
e|---------------|--------------|--6----6-------|--3----------|
B|--10---10------|--6----6------|--6----6-------|--3----------|
G|--10---10------|--7----5------|--7----7-------|--3------5-5-|
D|--10---10------|--7----7------|--8----8-------|--5------5-5-|
A|--8----7-------|--5----5------|--8----8-------|--5------3-3-|
E|---------------|-------8------|--6----5-------|--3----------|

e|----------------------------------|
B|----------------------------------|
G|---------------------------------o|
D|-8---8---7---7---8---8---7---7---o|
A|-8---8---7---7---8---8---7---7----|
E|-6---6---5---5---6---6---5---5----|

Solo (Accurate)
e|-------------------------------------------------------------------|
B|--------------------------------------------13br-------------------|
G|-----------10h12p10-12b-10--12-12--10-12p10------10-12brp10h12-10--|
D|------10h12--------------------------------------------------------|
A|-10h12-------------------------------------------------------------|
E|-------------------------------------------------------------------|

e|----------------------------------------------------------------------------|
B|-------11p10--13p10--11p10--13br--------------------------------------------|
G|12p10------10-----10-----10----12brp10-12-12-10-----------------------------|
D|------------------------------------------------12p10h12p10-----------------|
A|------------------------------------------------------------12p10h12p10-----|
E|-----------------------------------------------------------------------13~~-|

Enjoy

************************************

| /   slide up
| \   slide down
| h   hammer-on
| p   pull-off
| ~   vibrato
| +   harmonic
| x   Mute note
| b   Bend
| pb  Pre-bend
| br  Bend release
| pbr Pre-bend release
| brb Bend release bend

************************************
comments
print report bad tab
1 comment total.
0 reply
1sheldon wrote on May 3 2010, 06:15 pm

beast tab bro

I want to post or [tab]
guest
You may want to rate the tab now too:
select rating
Please do not post tabs as comments. Select "correction" instead!