Oops, an error
Loading. Please wait.

Digging It Out Tab

13 views 6 this week
no commentswrite comment
1 2 3 4 5
3 more votes to show rating
add to favorites
launch autoscroll
font size
0
reset
how to read this tab
guitar tuner
Autoscroll
slow
fast
+/-
esc
set tempo
stop
Help us to improve Ultimate-Guitar.com Take our survey!
×
Author
Difficulty
Tuning
intermediate
A# F A# D# G C
------------------------------------------------------------------------------------------
                                 Digging it out - Downplay
------------------------------------------------------------------------------------------
Tabbed by: Bart Baart
tuning: drop Bb/A#

[Intro]

C |-------------------|
G |-------------------|
D#|-------------------|
A#|-------------------|
F |-------------------|
A#|-0-0-0--0-0-0------| [REPEAT 1X]

C |-------------------|
G |-------------------|
D#|-------------------|
A#|-0-0-0--0-0-0------|
F |-0-0-0--0-0-0------|
A#|-0-0-0--0-0-0------| [REPEAT 3X]

C |-----------------------|--------------------|
G |-----------------------|--------------------|
D#|-----------------------|--------------------|
A#|-0-3-5-0-3-5-6-6-6-6---|-0-3-5-0-3-5-x------|
F |-0-3-5-0-3-5-5-5-5-5---|-0-3-5-0-3-5-x------|
A#|-0-3-5-0-3-5-----------|-0-3-5-0-3-5-x------| [REPEAT 1X]

[Verse one]

C |-----------------------|-----------------------|
G |-----------------------|-----------------------|
D#|-----------------------|-----------------------|
A#|-0-3-5-0-3-5-----------|-0-3-5-0-3-5-6-6-6-6---|
F |-0-3-5-0-3-5-5-5-5-5---|-0-3-5-0-3-5-5-5-5-5---|
A#|-0-3-5-0-3-5-3-3-3-3---|-0-3-5-0-3-5-----------| [REPEAT 1X]

[Guitar Break]

-

[Verse one]

C |-----------------------|-----------------------|
G |-----------------------|-----------------------|
D#|-----------------------|-----------------------|
A#|-0-3-5-0-3-5-----------|-0-3-5-0-3-5-6-6-6-6---|
F |-0-3-5-0-3-5-5-5-5-5---|-0-3-5-0-3-5-5-5-5-5---|
A#|-0-3-5-0-3-5-3-3-3-3---|-0-3-5-0-3-5-----------| [REPEAT 1X]

[Chorus]

C |----------------------|----------------------|----------------------|-------------------------|
G |----------------------|----------------------|----------------------|-------------------------|
D#|----------------------|-3--3-3--3-3-3-3--3-3-|-5--5-5--5-5-5-5--5-5-|-------------------------|
A#|-0--0-0--0-0-0-0--0-0-|-3--3-3--3-3-3-3--3-3-|-5--5-5--5-5-5-5--5-5-|-5-5-5-5-5-5-3-3-3-3-3-3-|
F |-0--0-0--0-0-0-0--0-0-|-1--1-1--1-1-1-1--1-1-|-3--3-3--3-3-3-3--3-3-|-5-5-5-5-5-5-3-3-3-3-3-3-|
A#|-0--0-0--0-0-0-0--0-0-|----------------------|----------------------|-5-5-5-5-5-5-3-3-3-3-3-3-| [REPEAT 1X]

[Verse two]

C |-----------------------|
G |-----------------------|
D#|-----------------------|
A#|-0-3-5-0-3-5-6-6-6-6---|
F |-0-3-5-0-3-5-5-5-5-5---|
A#|-0-3-5-0-3-5-----------|[REPEAT 3X]

[Guitar Break]

[Verse one]

C |-----------------------|-----------------------|
G |-----------------------|-----------------------|
D#|-----------------------|-----------------------|
A#|-0-3-5-0-3-5-----------|-0-3-5-0-3-5-6-6-6-6---|
F |-0-3-5-0-3-5-5-5-5-5---|-0-3-5-0-3-5-5-5-5-5---|
A#|-0-3-5-0-3-5-3-3-3-3---|-0-3-5-0-3-5-----------| [REPEAT 1X]

[Chorus]

C |----------------------|----------------------|----------------------|-------------------------|
G |----------------------|----------------------|----------------------|-------------------------|
D#|----------------------|-3--3-3--3-3-3-3--3-3-|-5--5-5--5-5-5-5--5-5-|-------------------------|
A#|-0--0-0--0-0-0-0--0-0-|-3--3-3--3-3-3-3--3-3-|-5--5-5--5-5-5-5--5-5-|-5-5-5-5-5-5-3-3-3-3-3-3-|
F |-0--0-0--0-0-0-0--0-0-|-1--1-1--1-1-1-1--1-1-|-3--3-3--3-3-3-3--3-3-|-5-5-5-5-5-5-3-3-3-3-3-3-|
A#|-0--0-0--0-0-0-0--0-0-|----------------------|----------------------|-5-5-5-5-5-5-3-3-3-3-3-3-| [REPEAT 1X]

[Guitar Break]

-

[Bridge]

C |-------------------|
G |-------------------|
D#|-------------------|
A#|-0-0-0--0-0-0------|
F |-0-0-0--0-0-0------|
A#|-0-0-0--0-0-0------| [REPEAT 3X]

C |-----------------------|
G |-----------------------|
D#|-----------------------|
A#|-0-3-5-0-3-5-6-6-6-6---|
F |-0-3-5-0-3-5-5-5-5-5---|
A#|-0-3-5-0-3-5-0-0-0-0---|[REPEAT 3X]

C |-------------------------|-------------------------|
G |-------------------------|-------------------------|
D#|-------------------------|-3-3-3-3-3-3-3-3-3-3-3-3-|
A#|-0-0-0-0-0-0-0-0-0-0-0-0-|-3-3-3-3-3-3-3-3-3-3-3-3-|
F |-0-0-0-0-0-0-0-0-0-0-0-0-|-1-1-1-1-1-1-1-1-1-1-1-1-|
A#|-0-0-0-0-0-0-0-0-0-0-0-0-|-------------------------|

C |-------------------------|-------------------------|
G |-------------------------|-------------------------|
D#|-5-5-5-5-5-5-5-5-5-5-5-5-|-------------------------|
A#|-5-5-5-5-5-5-5-5-5-5-5-5-|-5-5-5-5-5-5-3-3-3-3-3-3-|
F |-3-3-3-3-3-3-3-3-3-3-3-3-|-5-5-5-5-5-5-3-3-3-3-3-3-|
A#|-------------------------|-5-5-5-5-5-5-3-3-3-3-3-3-| [REPEAT 1X]

[Chorus]

C |----------------------|----------------------|----------------------|-------------------------|
G |----------------------|----------------------|----------------------|-------------------------|
D#|----------------------|-3--3-3--3-3-3-3--3-3-|-5--5-5--5-5-5-5--5-5-|-------------------------|
A#|-0--0-0--0-0-0-0--0-0-|-3--3-3--3-3-3-3--3-3-|-5--5-5--5-5-5-5--5-5-|-5-5-5-5-5-5-3-3-3-3-3-3-|
F |-0--0-0--0-0-0-0--0-0-|-1--1-1--1-1-1-1--1-1-|-3--3-3--3-3-3-3--3-3-|-5-5-5-5-5-5-3-3-3-3-3-3-|
A#|-0--0-0--0-0-0-0--0-0-|----------------------|----------------------|-5-5-5-5-5-5-3-3-3-3-3-3-| [REPEAT 1X]

[Outro]

C |-------------------|
G |-------------------|
D#|-------------------|
A#|-6-6-6--6-6-6------|
F |-5-5-5--5-5-5------|
A#|-0-0-0--0-0-0------| [REPEAT 3X]



************************************

| x   Dead note
| g   Grace note
| (n) Ghost note
| h   Hammer-on
| p   Pull-off
| r   Release
| >   Accented note
| t   Tapping
| b   Bend
| br  Bend release
| pb  Pre-bend
| pbr Pre-bend release
| /   Slide up
| \   Slide down
| ~   Vibrato
| s   Slap
| P   Pop
| PM  Palm mute
| TR  Trill
| N   Tremolo

************************************
Suggest correction
Give kudos to tab author, rate the tab!
1 2 3 4 5
comments
print report bad tab
guest
You may want to rate the tab now too:
select rating
Wanna post a correction for this tab? Suggest correction