Oops, an error
Loading. Please wait.

Sleep tab

667 views 15 this week
2 commentsread comments
1 2 3 4 5
x 3
add to favorites
×
Save as Personal and add changes to this tab that will be seen only by you. Learn more ›
×
You can save this tab as Personal to edit and correct it or add notes. All changes will be seen only by you. Learn more »
launch autoscroll
font size
0
reset
how to read this tab
guitar tuner
edit
Autoscroll
slow
fast
+/-
esc
set tempo
stop
This is tabbed from the version of Sleep on their Radiocalypse album, the one with the acoustic guitar on the
verse. I think the other versions are tuned a bit lower. I didn't tab the one slow part of the song but it
mostly involves the first verse chord and variations of that, mess around with it as I'm not entirely sure


VERSE:

I
e:/-----------------------------------------------------|
B:/-----------------------------------------------------|
G:/--7---7---7---7---7---7---9---9----------------------|
D:/----9---9---9---9---9---9---9---9--------------------|
A:/-----------------------------------------------------|
D:/-----------------------------------------------------|

II
e:/-----------------------------------------------------|
B:/-----------------------------------------------------|
G:/--77-77-77-77-77-9-11-11-11-11-11-9------------------|
D:/--77-77-77-77-77-9-11-11-11-11-11-9------------------|
A:/--55-55-55-55-55-7-99-99-99-99-99-7------------------|
D:/--55-55-55-55-55-7-99-99-99-99-99-7------------------|

PRECHORUS:

I 
e:/-----------------------------------------------------|
B:/-----------------------------------------------------|
G:/--14--12--11-12-11--9----------7---------------------|
D:/--x---x---x--x--x---x----------x---------------------|
A:/--12--10--9--10-9---7----------5---------------------|
D:/-----------------------------------------------------|
                                  ^ last time

II 
e:/-----------------------------------------------------|
B:/-----------------------------------------------------|
G:/---7-77-9-7------------------------------------------|
D:/---7-77-7-7------------------------------------------|
A:/---5-55-5-5------------------------------------------|
D:/---5-55-5-5------------------------------------------| 
      . ..

CHORUS:
(strumming not shown)

e:/-----------------------------------------------------|
B:/--3--5--8--------------------------------------------|
G:/--2--4--7--------------------------------------------|
D:/--0--2--5--------------------------------------------|
A:/--0--2--5--------------------------------------------|
D:/--0--2--5--------------------------------------------|

or 

e:/-----------------------------------------------------|
B:/-----------------------------------------------------|
G:/--5-7------------------------------------------------|
D:/--5-7-5----------------------------------------------|
A:/--3-5-5----------------------------------------------|
D:/------5----------------------------------------------|


BRIDGE:
(strumming not shown)

I
e:/-----------------------------------------------------|
B:/-----------------------------------------------------|
G:/--11--9--7---9---------------------------------------|
D:/--x---x--x---x---------------------------------------|
A:/--9---7--5---7---------------------------------------|
D:/-----------------------------------------------------|

II
e:/-----------------------------------------------------|
B:/-----------------------------------------------------|
G:/--11--9--7---9---------------------------------------|
D:/--11--9--7---9---------------------------------------|
A:/--9---7--5---7---------------------------------------|
D:/--9---7--5---7---------------------------------------|


            
            
Suggest correction
Creating personal tab
Creating personal tab
You can edit any tab online and save it as your Personal.

You can edit, replace or remove any tab part or add personal notes – all changes will be seen only by you.

Personal tabs can be accessed anytime from any device, even offline.
Learn more »
Give kudos to tab author, rate the tab!
1 2 3 4 5
comments
print report bad tab
2 comments total.
0 reply
saimon.sedlacek 10 Oct 24, 2015 08:24 AM, edited at 12:28 pm

Wow, thanks this one is actually pretty good. I was planneing to tab this song (A Day Without Gravity version) and this actually rly helped me. I also think I got the song 15 minutes almost completely right so I am gonna do it too ˇˇ

+1 reply
TutsiCockroach 10 Nov 03, 2015 01:15 PM

Great tab! This is the only downplay tab i have been able to find, and it is my favorite downplay song. I hope you make more downplay tabs in the future, because it'd be cool to learn wont let go or hated you from hello.

guest
You may want to rate the tab now too:
select rating
Wanna post a correction for this tab? Suggest correction