Oops, an error
Loading. Please wait.

What I Know bass

144 views 1 this week
no commentswrite comment
1 2 3 4 5
3 more votes to show rating
add to favorites
×
Save as Personal and add changes to this tab that will be seen only by you. Learn more ›
×
You can save this tab as Personal to edit and correct it or add notes. All changes will be seen only by you. Learn more »
launch autoscroll
font size
0
reset
guitar tuner
edit
Autoscroll
slow
fast
+/-
esc
set tempo
stop
Author
Difficulty
-------------------------------------------------------------------------------
		What I Know-Downtown Sasquatch
-------------------------------------------------------------------------------

Tabbed By : Morgan Downing

Tuning:Standard
This is the song from Degrassi:The Next Generation
that Craig wrote for Ashley

G|---------------------------------------------------------------------------|
D|-0-------------------------------------------------------------------------|
A|--------------------------------------------------------------------0------|
E|-------------------------3----------------------0--------------------------|
   I don't know if you'll forgive me,  For being so blind, To how you felt.
G|---------------------------------------------------------------------------|
D|------000000000000000000000000---------------------------------------------|
A|--------------------------------------------------------------------------0|
E|----------------------------------333333333333333-00000000000000000000000--|
  Don't ask me why you couldn't, See it. And that'd take me years, To figure 
G|---------------------------------------------------------------------------|
D|----------------------------------------------0----------------------------|
A|00000-------2--------------------0-----------------------------------------|
E|---------------------------------------------------------------------------|
  out     And that's not something I know much about,
G|---------------------------------------------------------------------------|
D|----------------------------------0----------------------------------------|
A|----2--------------------0-------------------------------------------------|
E|---------------------------------------------------------------------------|
  But there's only one way to find out. Yeah, Yeah, Yeah

G|---------------------------------------------------------------------------|
D|---------------------------------------------------------------------------|
A|-------0-------------------------------------------------------------------|
E|----------------------3----------------------------------------------------|
  What I know, Is that I hurt you, Oh.
G|---------------------------------------------------------------------------|
D|-------0------------------------------0------------------------------------|
A|---------------------------------------------------------------------------|
E|---------------------------------------------------------------------------|
  What I know, Is that I suck and what I know is that I'm sorry.
G|---------------------------------------------------------------------------|
D|---------------------------------------------------------------------------|
A|-------0-------------------------------------------------------------------|
E|-----------------------3---------------------------------------------------|
  What I know, Is that I'm a loser, Yeah.
G|---------------------------------------------------------------------------|
D|--------0------------------------------------------------------------------|
A|---------------------------------------------------------------------------|
E|---------------------------------------------------------------------------|
  What I know, Is I screwed up and then I never learned to trust.
G|---------------------------------------------------------------------------|
D|------------------------------------------------------------0--------------|
A|-------0-------------------------------------------------------------------|
E|---------------------3-----------------------------------------------------|
  What I know, Is that everything I touch, Just turns to dust.



===============================================================================

            
            
Suggest correction
Creating personal tab
Creating personal tab
You can edit any tab online and save it as your Personal.

You can edit, replace or remove any tab part or add personal notes – all changes will be seen only by you.

Personal tabs can be accessed anytime from any device, even offline.
Learn more »
Give kudos to tab author, rate the tab!
1 2 3 4 5
comments
print report bad tab
guest
You may want to rate the tab now too:
select rating
Wanna post a correction for this tab? Suggest correction