Oops, an error
Loading. Please wait.

Get Weird tab

by Dowsing
1,042 views 1 this week
no commentswrite comment
1 2 3 4 5
3 more votes to show rating
add to favorites
×
Save as Personal and add changes to this tab that will be seen only by you. Learn more ›
×
You can save this tab as Personal to edit and correct it or add notes. All changes will be seen only by you. Learn more »
launch autoscroll
font size
0
reset
how to read this tab
guitar tuner
edit
Autoscroll
slow
fast
+/-
esc
set tempo
stop
Author
Difficulty
Dowsing
Get Weird
from the hit album "I Don't Even Care Anymore" (2013)

Tuning: Standard (EADGBe)

Please share this/post elsewhere, just please give me credit.
Transcribed by: Philip Tebby. email: capn.jazz@hotmail.com

This is a simple song, so I'm going to let you figure out the structure and rhythm. 
There are three parts to this song. This is Guitar 1. 

If you want to know the second guitar part, go to this link:
http://www.youtube.com/watch?v=kYI9SP2vzJ4 and watch what the dude on the left is doing.

Part 1: Verses (figure out rhythm yourself, these are the chords)
e- --------------|
B- --------------|
G- -12-12--------|
D- -14-14--------|
A- -14-0---------|
E- --------------|


Part 2: "It Gets Weird..." 
(Repeat as necessary)
e- -----------------------------------------------------|
B- ----5---5---5---5---5---5---5------------------------|
G- --6---6---6---6---4---4---4---4----------------------| 
D- -----------------------------------------------------|
A- -----------------------------------------------------|
E- -----------------------------------------------------|

Part 3: Ending ("It's the size of an ocean...")
e- -----------------------------------------------------|
B- -----------------------------------------------------|
G- -------4---------------------------------------------| 
D- -4-7-2-4---------------------------------------------|
A- -4-7-2-2---------------------------------------------|
E- -2-5-0-----------------------------------------------|




Lyrics:

If it’s a matter of preference I prefer your apartment
And the shadows cast on the white walls.
There’s just a lack of commitment and misunderstanding
And the notion that I will never be enough.

And it gets weird sometimes when I say I love you.

Come on don’t leave me hanging on
Don’t leave me.

But it gets weird sometimes when I say I love you
And it gets weird sometimes when I say I love you.

It’s the size of an ocean
It’s fucking terrifying
To be so exposed it feels like I’m drowning.

            
            
Suggest correction
Creating personal tab
Creating personal tab
You can edit any tab online and save it as your Personal.

You can edit, replace or remove any tab part or add personal notes – all changes will be seen only by you.

Personal tabs can be accessed anytime from any device, even offline.
Learn more »
Give kudos to tab author, rate the tab!
1 2 3 4 5
comments
print report bad tab
guest
You may want to rate the tab now too:
select rating
Wanna post a correction for this tab? Suggest correction