Oops, an error
Loading. Please wait.

Big Sky Theory tab

version 1
version 1

Whole song

Interactive

by Dozer
625 views 12 this week
no commentswrite comment
1 2 3 4 5
3 more votes to show rating
add to favorites
×
Save as Personal and add changes to this tab that will be seen only by you. Learn more ›
×
You can save this tab as Personal to edit and correct it or add notes. All changes will be seen only by you. Learn more »
launch autoscroll
font size
0
reset
how to read this tab
guitar tuner
edit
Autoscroll
slow
fast
+/-
esc
set tempo
stop
Band:      Dozer
Song:      Big Sky Theory
Album:     Through the Eyes of Heathens (2005)
Tuning:    B Standard (B Gb D A E B)

Tabbed by: Andrew Falger (HollishGuy)
Email:     andrewfalger@gmail.com

This is my first tab, so apologies in advance for any mistakes.
The rhythm is not too hard to figure out, but if you do have any trouble,
I suggest listening to the song for the exact timing.


[Intro] (00:12)

Guitar 2 only

b |-------------------|------|-------|-------|-------------|------|-------|-------|--------------|
Gb|-------------------|------|-------|-------|-------------|------|-------|-------|--------------|
D |-------------------|------|-------|-------|-------------|------|-------|-------|--------------|
A |-2//////////////17-|-2~---|-(2)---|-(2)---|-(2)---2//17-|-2~---|-(2)---|-(2)---|-(2)---2///17-|
E |-2//pick slide//17-|-2~---|-(2)---|-(2)---|-(2)---2//17-|-2~---|-(2)---|-(2)---|-(2)---2///17-|
B |-0//////////////15-|-0~---|-(0)---|-(0)---|-(0)---0//15-|-0~---|-(0)---|-(0)---|-(0)---0///15-|


b |------|-------|-------|--------------|------|-------|-------|-------------------|
Gb|------|-------|-------|--------------|------|-------|-------|-------------------|
D |------|-------|-------|--------------|------|-------|-------|-------------------|
A |-2~---|-(2)---|-(2)---|-(2)---2///17-|-2~---|-(2)---|-(2)---|-2//////////////17-|
E |-2~---|-(2)---|-(2)---|-(2)---2///17-|-2~---|-(2)---|-(2)---|-2//pick slide//17-|
B |-0~---|-(0)---|-(0)---|-(0)---0///15-|-0~---|-(0)---|-(0)---|-0//////////////15-|


[Chorus 1] (00:42)

Guitar 1

b |------------------|-----------------|-------10-------10-------|-10-------10------------|
Gb|-------------8-10-|-8-8-8-8-8-8-8-8-|-10-12----10-12----10-12-|----10-12----10-10-10-8-|
D |-9-9-9-9-9-9------|-----------------|-------------------------|------------------------|
A |------------------|-----------------|-------------------------|------------------------|     x4
E |------------------|-----------------|-------------------------|------------------------|
B |------------------|-----------------|-------------------------|------------------------|

Guitar 2

b |-----------------|-----------------|-----------------|-----------------|
Gb|-----------------|-----------------|-----------------|-----------------|
D |-----------------|-9-9-9-9-9-9-9-9-|-7-7-7-7-7-7-7-7-|-7-7-7-7---------|
A |-2-2-2-2-2-2-2-2-|-9-9-9-9-9-9-9-9-|-7-7-7-7-7-7-7-7-|-7-7-7-7-7-7-7-7-|     x4
E |-2-2-2-2-2-2-2-2-|-7-7-7-7-7-7-7-7-|-5-5-5-5-5-5-5-5-|-5-5-5-5-7-7-7-7-|
B |-0-0-0-0-0-0-0-0-|-----------------|-----------------|---------5-5-5-5-|


[Pre-verse 1] (01:10)

Guitar 2 only

      PM---|  PM---|    PM-----------|    PM---|  PM---|    PM-----------|
b |-----------------|-----------------|-----------------|-----------------|
Gb|-----------------|-----------------|-----------------|-----------------|
D |-9-------7-------|-9---------------|-9-------7-------|-9---------------|
A |-9-------7-------|-9---------------|-9-------7-------|-9---------------|
E |-7---7-7-5---5-5-|-7---7-7-777-7-7-|-7---7-7-5---5-5-|-7---7-7-777-7-7-|
B |-----------------|-----------------|-----------------|-----------------|


      PM---|  PM---|    PM-----------|    PM---|  PM---|   PM------------|
b |-----------------|-----------------|-----------------|-----------------|
Gb|-----------------|-----------------|-----------------|-----------------|
D |-9-------7-------|-9---------------|-9-------7-------|-9---------------|
A |-9-------7-------|-9---------------|-9-------7-------|-9---------------|
E |-7---7-7-5---5-5-|-7---7-7-777-7-7-|-7---7-7-5---5-5-|-7---7-7-777-7-7-|
B |-----------------|-----------------|-----------------|-----------------|


[Verse 1] (01:25)

Guitar 2 only

      PM---|  PM---|    PM-----------|    PM---|  PM---|   PM------------|
b |-----------------|-----------------|-----------------|-----------------|
Gb|-----------------|-----------------|-----------------|-----------------|
D |-9-------7-------|-9---------------|-9-------7-------|-9---------------|
A |-9-------7-------|-9---------------|-9-------7-------|-9---------------|
E |-7---7-7-5---5-5-|-7---7-7-7-7-7-7-|-7---7-7-5---5-5-|-7---7-7-7-7-7-7-|
B |-----------------|-----------------|-----------------|-----------------|


     PM---|  PM---|    PM-----------|     PM---|  PM---|   PM------------|
b |-----------------|-----------------|-----------------|-----------------|
Gb|-----------------|-----------------|-----------------|-----------------|
D |-9-------7-------|-9---------------|-9-------7-------|-9---------------|
A |-9-------7-------|-9---------------|-9-------7-------|-9---------------|
E |-7---7-7-5---5-5-|-7---7-7-7-7-7-7-|-7---7-7-5---5-5-|-7---7-7-7-7-7-7-|
B |-----------------|-----------------|-----------------|-----------------|


b |-------|-------|--------|-------------------|
Gb|-------|-------|--------|-------------------|
D |-------|-------|--------|-------------------|
A |-10~---|-10~---|-10~----|-------------------|     entire section x2
E |-10~---|-10~---|-10~----|-------------------|
B |-8~----|-8~----|-8~---0-|-3---0-10---0-12---|


[Chorus 2] (02:10)

Guitar 1

b |------------------|-----------------|-------10-------10-------|-10-------10------------|
Gb|-------------8-10-|-8-8-8-8-8-8-8-8-|-10-12----10-12----10-12-|----10-12----10-10-10-8-|
D |-9-9-9-9-9-9------|-----------------|-------------------------|------------------------|
A |------------------|-----------------|-------------------------|------------------------|
E |------------------|-----------------|-------------------------|------------------------|
B |------------------|-----------------|-------------------------|------------------------|


b |------------------|-----------------|-------10-------10-------|-/12-10------/12-10------|
Gb|-------------8-10-|-8-8-8-8-8-8-8-8-|-10-12----10-12----10-12-|--------10-8--------10-8-|
D |-9-9-9-9-9-9------|-----------------|-------------------------|-------------------------|
A |------------------|-----------------|-------------------------|-------------------------|
E |------------------|-----------------|-------------------------|-------------------------|
B |------------------|-----------------|-------------------------|-------------------------|


b |------------------|-----------------|-------10-------10-------|-10-------10------------|
Gb|-------------8-10-|-8-8-8-8-8-8-8-8-|-10-12----10-12----10-12-|----10-12----10-10-10-8-|
D |-9-9-9-9-9-9------|-----------------|-------------------------|------------------------|
A |------------------|-----------------|-------------------------|------------------------|     x2
E |------------------|-----------------|-------------------------|------------------------|
B |------------------|-----------------|-------------------------|------------------------|

Guitar 2

b |-----------------|-----------------|-----------------|-----------------|
Gb|-----------------|-----------------|-----------------|-----------------|
D |-----------------|-9-9-9-9-9-9-9-9-|-7-7-7-7-7-7-7-7-|-7-7-7-7---------|
A |-----------------|-9-9-9-9-9-9-9-9-|-7-7-7-7-7-7-7-7-|-7-7-7-7-7-7-7-7-|     x4
E |-2-2-2-2-2-2-2-2-|-7-7-7-7-7-7-7-7-|-5-5-5-5-5-5-5-5-|-5-5-5-5-7-7-7-7-|
B |-0-0-0-0-0-0-0-0-|-----------------|-----------------|---------5-5-5-5-|


[Pre-verse 2] (02:39)

Guitar 2 only

      PM---|  PM---|    PM-----------|    PM---|  PM---|    PM-----------|
b |-----------------|-----------------|-----------------|-----------------|
Gb|-----------------|-----------------|-----------------|-----------------|
D |-9-------7-------|-9---------------|-9-------7-------|-9---------------|
A |-9-------7-------|-9---------------|-9-------7-------|-9---------------|
E |-7---7-7-5---5-5-|-7---7-7-777-7-7-|-7---7-7-5---5-5-|-7---7-7-777-7-7-|
B |-----------------|-----------------|-----------------|-----------------|


      PM---|  PM---|    PM-----------|    PM---|  PM---|   PM------------|
b |-----------------|-----------------|-----------------|-----------------|
Gb|-----------------|-----------------|-----------------|-----------------|
D |-9-------7-------|-9---------------|-9-------7-------|-9---------------|
A |-9-------7-------|-9---------------|-9-------7-------|-9---------------|
E |-7---7-7-5---5-5-|-7---7-7-777-7-7-|-7---7-7-5---5-5-|-7---7-7-777-7-7-|
B |-----------------|-----------------|-----------------|-----------------|


[Verse 2] (02:53)

Guitar 2 only

      PM---|  PM---|    PM-----------|    PM---|  PM---|   PM------------|
b |-----------------|-----------------|-----------------|-----------------|
Gb|-----------------|-----------------|-----------------|-----------------|
D |-9-------7-------|-9---------------|-9-------7-------|-9---------------|
A |-9-------7-------|-9---------------|-9-------7-------|-9---------------|
E |-7---7-7-5---5-5-|-7---7-7-7-7-7-7-|-7---7-7-5---5-5-|-7---7-7-7-7-7-7-|
B |-----------------|-----------------|-----------------|-----------------|


     PM---|  PM---|    PM-----------|     PM---|  PM---|   PM------------|
b |-----------------|-----------------|-----------------|-----------------|
Gb|-----------------|-----------------|-----------------|-----------------|
D |-9-------7-------|-9---------------|-9-------7-------|-9---------------|
A |-9-------7-------|-9---------------|-9-------7-------|-9---------------|
E |-7---7-7-5---5-5-|-7---7-7-7-7-7-7-|-7---7-7-5---5-5-|-7---7-7-7-7-7-7-|
B |-----------------|-----------------|-----------------|-----------------|


b |-------|-------|--------|-------------------|
Gb|-------|-------|--------|-------------------|
D |-------|-------|--------|-------------------|
A |-10~---|-10~---|-10~----|-------------------|     entire section x2
E |-10~---|-10~---|-10~----|-------------------|
B |-8~----|-8~----|-8~---0-|-3---0-10---0-12---|


[Chorus 3] (03:38)

Guitar 1

b |------------------|-----------------|-------10-------10-------|-10-------10------------|
Gb|-------------8-10-|-8-8-8-8-8-8-8-8-|-10-12----10-12----10-12-|----10-12----10-10-10-8-|
D |-9-9-9-9-9-9------|-----------------|-------------------------|------------------------|
A |------------------|-----------------|-------------------------|------------------------|
E |------------------|-----------------|-------------------------|------------------------|
B |------------------|-----------------|-------------------------|------------------------|


b |------------------|-----------------|-------10-------10-------|-/12-10------/12-10------|
Gb|-------------8-10-|-8-8-8-8-8-8-8-8-|-10-12----10-12----10-12-|--------10-8--------10-8-|
D |-9-9-9-9-9-9------|-----------------|-------------------------|-------------------------|
A |------------------|-----------------|-------------------------|-------------------------|
E |------------------|-----------------|-------------------------|-------------------------|
B |------------------|-----------------|-------------------------|-------------------------|


b |------------------|-----------------|-------10-------10-------|-10-------10------------|
Gb|-------------8-10-|-8-8-8-8-8-8-8-8-|-10-12----10-12----10-12-|----10-12----10-10-10-8-|
D |-9-9-9-9-9-9------|-----------------|-------------------------|------------------------|
A |------------------|-----------------|-------------------------|------------------------|     x2
E |------------------|-----------------|-------------------------|------------------------|
B |------------------|-----------------|-------------------------|------------------------|

Guitar 2

b |-----------------|-----------------|-----------------|-----------------|
Gb|-----------------|-----------------|-----------------|-----------------|
D |-----------------|-9-9-9-9-9-9-9-9-|-7-7-7-7-7-7-7-7-|-7-7-7-7---------|
A |-----------------|-9-9-9-9-9-9-9-9-|-7-7-7-7-7-7-7-7-|-7-7-7-7-7-7-7-7-|     x4
E |-2-2-2-2-2-2-2-2-|-7-7-7-7-7-7-7-7-|-5-5-5-5-5-5-5-5-|-5-5-5-5-7-7-7-7-|
B |-0-0-0-0-0-0-0-0-|-----------------|-----------------|---------5-5-5-5-|


[Bridge 1] (04:07)

Guitar 1

b |-----------------------|---------------------|-----------------|-----------------|
Gb|-----------------------|---------------------|-----------------|-----------------|
D |-12---12-12-12---12-12-|-11---11---19---19---|-9-9-9-9-9-9-9-9-|-9-9-9-9-9-9-9-9-|
A |-12---12-12-12---12-12-|-11---11---19---19---|-9-9-9-9-9-9-9-9-|-9-9-9-9-9-9-9-9-|    x3
E |-10---10-10-10---10-10-|-9----9----17---17---|-7-7-7-7-7-7-7-7-|-7-7-7-7-7-7-7-7-|
B |-----------------------|---------------------|-----------------|-----------------|


b |-----------------------|---------------------|
Gb|-----------------------|---------------------|
D |-12---12-12-12---12-12-|-11---11---19---19---|
A |-12---12-12-12---12-12-|-11---11---19---19---|
E |-10---10-10-10---10-10-|-9----9----17---17---|
B |-----------------------|---------------------|

Guitar 2

b |-----------------|-----------------|-----------------|-----------------|
Gb|-----------------|-----------------|-----------------|-----------------|
D |-----------------|---------7---7---|-9-9-9-9-9-9-9-9-|-9-9-9-9-9-9-9-9-|
A |-5---5-5-5---5-5-|-4---4---7---7---|-9-9-9-9-9-9-9-9-|-9-9-9-9-9-9-9-9-|    x3
E |-5---5-5-5---5-5-|-4---4---5---5---|-7-7-7-7-7-7-7-7-|-7-7-7-7-7-7-7-7-|
B |-3---3-3-3---3-3-|-2---2-----------|-----------------|-----------------|


b |-----------------|-----------------|
Gb|-----------------|-----------------|
D |-----------------|---------7---7---|
A |-5---5-5-5---5-5-|-4---4---7---7---|
E |-5---5-5-5---5-5-|-4---4---5---5---|
B |-3---3-3-3---3-3-|-2---2-----------|


[Interlude 1] (04:31)

Guitar 1 only

b |-----------------|-----------------|-----------------|-----------------|
Gb|-----------------|-----------------|-----------------|-----------------|
D |-----------------|-----------------|-----------------|-----------------|
A |-5-5-5-5-5-5-5-5-|-5-5-5-5-5-5-5-5-|-4-4-4-4-4-4-4-4-|-4-4-4-4-4-4-4-4-|
E |-----------------|-----------------|-----------------|-----------------|
B |-----------------|-----------------|-----------------|-----------------|


b |-----------------|-----------------|-----------------|-----------------|
Gb|-----------------|-----------------|-----------------|-----------------|
D |-7-7-7-7-7-7-7-7-|-7-7-7-7-7-7-7-7-|-9-9-9-9-9-9-9-9-|-9-9-9-9-9-9-9-9-|
A |-----------------|-----------------|-----------------|-----------------|     entire section x4
E |-----------------|-----------------|-----------------|-----------------|
B |-----------------|-----------------|-----------------|-----------------|


[Bridge 2] (05:29)

Guitar 1

b |---------------------|-----------------------|----------------------|-------------------------|
Gb|---------------------|-----------------------|----------------------|-------------------------|
D |-12---12---12-----12-|-12-12---12-12-12-12---|-11---11---11---11-11-|-11-11-11-11-11-11-11-11-|
A |-12---12---12-----12-|-12-12---12-12-12-12---|-11---11---11---11-11-|-11-11-11-11-11-11-11-11-|
E |-10---10---10-----10-|-10-10---10-10-10-10---|-9----9----9----9--9--|-9--9--9--9--9--9--9--9--|
B |---------------------|-----------------------|----------------------|-------------------------|


b |-----------------|-----------------|-----------------|-----------------|
Gb|-----------------|-----------------|-----------------|-----------------|
D |-7---7---7-----7-|-7-7---7-7-7-7---|-9-9-9-9-9-9-9-9-|-9-9-9-9-9-9-9-9-|
A |-7---7---7-----7-|-7-7---7-7-7-7---|-9-9-9-9-9-9-9-9-|-9-9-9-9-9-9-9-9-|     entire section x4
E |-5---5---5-----5-|-5-5---5-5-5-5---|-7-7-7-7-7-7-7-7-|-7-7-7-7-7-7-7-7-|
B |-----------------|-----------------|-----------------|-----------------|

Guitar 2

b |-----------------|-----------------|-----------------|-----------------|
Gb|-----------------|-----------------|-----------------|-----------------|
D |-----------------|-----------------|-----------------|-----------------|
A |-5---5---5-----5-|-5-5---5-5-5-5---|-4---4---4---4-4-|-4-4-4-4-4-4-4-4-|
E |-5---5---5-----5-|-5-5---5-5-5-5---|-4---4---4---4-4-|-4-4-4-4-4-4-4-4-|
B |-3---3---3-----3-|-3-3---3-3-3-3---|-2---2---2---2-2-|-2-2-2-2-2-2-2-2-|


b |-----------------|-----------------|-----------------|-----------------|
Gb|-----------------|-----------------|-----------------|-----------------|
D |-7---7---7-----7-|-7-7---7-7-7-7---|-9-9-9-9-9-9-9-9-|-9-9-9-9-9-9-9-9-|
A |-7---7---7-----7-|-7-7---7-7-7-7---|-9-9-9-9-9-9-9-9-|-9-9-9-9-9-9-9-9-|     entire section x4
E |-5---5---5-----5-|-5-5---5-5-5-5---|-7-7-7-7-7-7-7-7-|-7-7-7-7-7-7-7-7-|
B |-----------------|-----------------|-----------------|-----------------|


[Interlude 2] (06:26)

Guitar 1

b |------------------|-----------------|-------10-------10-------|-10-------10------------|
Gb|-------------8-10-|-8---------------|-10-12----10-12----10-12-|----10-12----10-10-10-0-|
D |-9----------------|-----------------|-------------------------|------------------------|
A |------------------|-----------------|-------------------------|------------------------|     x3
E |------------------|-----------------|-------------------------|------------------------|
B |------------------|-----------------|-------------------------|------------------------|


b |------------------|-----------------|-------10-------10-------|-10-------10----------|
Gb|-------------8-10-|-8---------------|-10-12----10-12----10-12-|----10-12----10-------|
D |-9----------------|-----------------|-------------------------|----------------------|
A |------------------|-----------------|-------------------------|----------------------|
E |------------------|-----------------|-------------------------|----------------------|
B |------------------|-----------------|-------------------------|----------------------|

Guitar 2

b |-----------------|-----------------|-----------------|-----------------|
Gb|-----------------|-----------------|-----------------|-----------------|
D |-----------------|-----------------|-----------------|-----------------|
A |-----------------|-----------------|-----------------|-----------------|     x3
E |-----------------|-7-7-7-7-7-7-7-7-|-5-5-5-5-5-5-5-5-|-5-5-5-5---------|
B |-0-0-0-0-0-0-0-0-|-----------------|-----------------|---------5-5-5-5-|


b |-----------------|-----------------|-----------------|-----------------|
Gb|-----------------|-----------------|-----------------|-----------------|
D |-----------------|-----------------|-----------------|-----------------|
A |-----------------|-----------------|-----------------|-----------------|
E |-----------------|-7-7-7-7-7-7-7-7-|-5-5-5-5-5-5-5-5-|-5-5-5-5---------|
B |-0-0-0-0-0-0-0-0-|-----------------|-----------------|---------5-------|


[Chorus 4] (06:54)

Guitar 1

b |------------------|-----------------|-------10-------10-------|-10-------10------------|
Gb|-------------8-10-|-8-8-8-8-8-8-8-8-|-10-12----10-12----10-12-|----10-12----10-10-10-8-|
D |-9-9-9-9-9-9------|-----------------|-------------------------|------------------------|
A |------------------|-----------------|-------------------------|------------------------|
E |------------------|-----------------|-------------------------|------------------------|
B |------------------|-----------------|-------------------------|------------------------|


b |------------------|-----------------|-------10-------10-------|-/12-10------/12-10------|
Gb|-------------8-10-|-8-8-8-8-8-8-8-8-|-10-12----10-12----10-12-|--------10-8--------10-8-|
D |-9-9-9-9-9-9------|-----------------|-------------------------|-------------------------|
A |------------------|-----------------|-------------------------|-------------------------|
E |------------------|-----------------|-------------------------|-------------------------|
B |------------------|-----------------|-------------------------|-------------------------|


b |------------------|-----------------|-------10-------10-------|-10-------10------------|
Gb|-------------8-10-|-8-8-8-8-8-8-8-8-|-10-12----10-12----10-12-|----10-12----10-10-10-8-|
D |-9-9-9-9-9-9------|-----------------|-------------------------|------------------------|
A |------------------|-----------------|-------------------------|------------------------|     x2
E |------------------|-----------------|-------------------------|------------------------|
B |------------------|-----------------|-------------------------|------------------------|

Guitar 2

b |-----------------|-----------------|-----------------|-----------------|
Gb|-----------------|-----------------|-----------------|-----------------|
D |-----------------|-9-9-9-9-9-9-9-9-|-7-7-7-7-7-7-7-7-|-7-7-7-7---------|
A |-----------------|-9-9-9-9-9-9-9-9-|-7-7-7-7-7-7-7-7-|-7-7-7-7-7-7-7-7-|     x4
E |-2-2-2-2-2-2-2-2-|-7-7-7-7-7-7-7-7-|-5-5-5-5-5-5-5-5-|-5-5-5-5-7-7-7-7-|
B |-0-0-0-0-0-0-0-0-|-----------------|-----------------|---------5-5-5-5-|


[Outro] (07:22)

Guitar 1

b |------------------|-----------------|-------10-------10-------|-10-------10------------|
Gb|-------------8-10-|-8-8-8-8-8-8-8-8-|-10-12----10-12----10-12-|----10-12----10-10-10-8-|
D |-9-9-9-9-9-9------|-----------------|-------------------------|------------------------|
A |------------------|-----------------|-------------------------|------------------------|
E |------------------|-----------------|-------------------------|------------------------|
B |------------------|-----------------|-------------------------|------------------------|


b |------------------|-----------------|-------10-------10-------|-/12-10------/12-10------|
Gb|-------------8-10-|-8-8-8-8-8-8-8-8-|-10-12----10-12----10-12-|--------10-8--------10-8-|
D |-9-9-9-9-9-9------|-----------------|-------------------------|-------------------------|
A |------------------|-----------------|-------------------------|-------------------------|
E |------------------|-----------------|-------------------------|-------------------------|
B |------------------|-----------------|-------------------------|-------------------------|


b |------------------|-----------------|-------10-------10-------|-10-------10------------|
Gb|-------------8-10-|-8-8-8-8-8-8-8-8-|-10-12----10-12----10-12-|----10-12----10-10-10-8-|
D |-9-9-9-9-9-9------|-----------------|-------------------------|------------------------|
A |------------------|-----------------|-------------------------|------------------------|
E |------------------|-----------------|-------------------------|------------------------|
B |------------------|-----------------|-------------------------|------------------------|


b |------------------|-----------------|-------10-------10-------|-10-------10------------|
Gb|-------------8-10-|-8-8-8-8-8-8-8-8-|-10-12----10-12----10-12-|----10-12----10-10-10---|
D |-9-9-9-9-9-9------|-----------------|-------------------------|------------------------|
A |------------------|-----------------|-------------------------|------------------------|
E |------------------|-----------------|-------------------------|------------------------|
B |------------------|-----------------|-------------------------|------------------------|

Guitar 2

b |-----------------|-----------------|-----------------|-----------------|
Gb|-----------------|-----------------|-----------------|-----------------|
D |-----------------|-9-9-9-9-9-9-9-9-|-7-7-7-7-7-7-7-7-|-7-7-7-7---------|
A |-----------------|-9-9-9-9-9-9-9-9-|-7-7-7-7-7-7-7-7-|-7-7-7-7-7-7-7-7-|     x3
E |-2-2-2-2-2-2-2-2-|-7-7-7-7-7-7-7-7-|-5-5-5-5-5-5-5-5-|-5-5-5-5-7-7-7-7-|
B |-0-0-0-0-0-0-0-0-|-----------------|-----------------|---------5-5-5-5-|


b |-----------------|-----------------|-----------------|-----------------|
Gb|-----------------|-----------------|-----------------|-----------------|
D |-----------------|-9-9-9-9-9-9-9-9-|-7-7-7-7-7-7-7-7-|-7-7-7-7---------|
A |-----------------|-9-9-9-9-9-9-9-9-|-7-7-7-7-7-7-7-7-|-7-7-7-7-7-7-7---|
E |-2-2-2-2-2-2-2-2-|-7-7-7-7-7-7-7-7-|-5-5-5-5-5-5-5-5-|-5-5-5-5-7-7-7---|
B |-0-0-0-0-0-0-0-0-|-----------------|-----------------|---------5-5-5---|

Guitar 3

b |-----------------|-----------------|-----------------|-----------------|-----------------|
Gb|-----------------|-----------------|-7-7-7-7-7-7-7-7-|-7-7-7-7-7-7-7-7-|-8-8-8-8-8-8-8-8-|
D |-9-9-9-9-9-9-9-9-|-9-9-9-9-9-9-9-9-|-----------------|-----------------|-----------------|
A |-----------------|-----------------|-----------------|-----------------|-----------------|
E |-----------------|-----------------|-----------------|-----------------|-----------------|
B |-----------------|-----------------|-----------------|-----------------|-----------------|


b |-----------------|-------------------------|-------------------------|-------------------------|
Gb|-8-8-8-8-8-8-8-8-|-10-10-10-10-10-10-10-10-|-10-10-10-10-10-10-10-10-|-12-12-12-12-12-12-12-12-|
D |-----------------|-------------------------|-------------------------|-------------------------|
A |-----------------|-------------------------|-------------------------|-------------------------|
E |-----------------|-------------------------|-------------------------|-------------------------|
B |-----------------|-------------------------|-------------------------|-------------------------|


b |-------------------------|-------------------------|-------------------------|-12-12-12-12-12-12-12-12-|
Gb|-12-12-12-12-12-12-12-12-|-15-15-15-15-15-15-15-15-|-15-15-15-15-15-15-15-15-|-------------------------|
D |-------------------------|-------------------------|-------------------------|-------------------------|
A |-------------------------|-------------------------|-------------------------|-------------------------|
E |-------------------------|-------------------------|-------------------------|-------------------------|
B |-------------------------|-------------------------|-------------------------|-------------------------|


b |-12-12-12-12-12-12-12-12-|-14-14-14-14-14-14-14-14-|-14-14-14-14-14-14-14----|
Gb|-------------------------|-------------------------|-------------------------|
D |-------------------------|-------------------------|-------------------------|
A |-------------------------|-------------------------|-------------------------|
E |-------------------------|-------------------------|-------------------------|
B |-------------------------|-------------------------|-------------------------|

            
            
Suggest correction
Creating personal tab
Creating personal tab
You can edit any tab online and save it as your Personal.

You can edit, replace or remove any tab part or add personal notes – all changes will be seen only by you.

Personal tabs can be accessed anytime from any device, even offline.
Learn more »
Give kudos to tab author, rate the tab!
1 2 3 4 5
comments
print report bad tab
guest
You may want to rate the tab now too:
select rating
Wanna post a correction for this tab? Suggest correction