Oops, an error
Loading. Please wait.

Days Of Future Past Tab

25 views 6 this week
no commentswrite comment
1 2 3 4 5
3 more votes to show rating
add to favorites
launch autoscroll
font size
0
reset
how to read this tab
guitar tuner
Autoscroll
slow
fast
+/-
esc
set tempo
stop
Help us to improve Ultimate-Guitar.com Take our survey!
×
Author
Difficulty
novice
Band:      Dozer
Song:      Days of Future Past
Album:     Through the Eyes of Heathens (2005)
Tuning:    E Standard (E B G D A E)

Tabbed by: Andrew Falger (HollishGuy)
Email:     andrewfalger@gmail.com

This song is pretty straightforward, so there shouldn't be too many difficulties.


[Intro] (00:00)

Guitar 1 only

e|-----------------|-----------------|-----------------|-----------------|
B|-----------------|-----------------|-----------------|-----------------|
G|-----------------|-5-5-5-5-5-5-5-5-|-6-6-6-6-6-6-6-6-|-6-6-6-6-6-6-6-6-|
D|-8-8-8-8-8-8-8-8-|-5-5-5-5-5-5-5-5-|-6-6-6-6-6-6-6-6-|-6-6-6-6-6-6-6-6-|
A|-8-8-8-8-8-8-8-8-|-3-3-3-3-3-3-3-3-|-4-4-4-4-4-4-4-4-|-4-4-4-4-4-4-4-4-|
E|-6-6-6-6-6-6-6-6-|-----------------|-----------------|-----------------|

e|-----------------|-----------------|-----------------|-----------------|
B|-----------------|-----------------|-----------------|-----------------|
G|-----------------|-5-5-5-5-5-5-5-5-|-6-6-6-6-6-6-6-6-|-5-5-5-5-5-5-5-5-|
D|-8-8-8-8-8-8-8-8-|-5-5-5-5-5-5-5-5-|-6-6-6-6-6-6-6-6-|-5-5-5-5-5-5-5-5-|
A|-8-8-8-8-8-8-8-8-|-3-3-3-3-3-3-3-3-|-4-4-4-4-4-4-4-4-|-3-3-3-3-3-3-3-3-|
E|-6-6-6-6-6-6-6-6-|-----------------|-----------------|-----------------|


[Verse 1] (00:15)

Guitar 1 only

e|-----------------|-----------------|-----------------|-----------------|
B|-----------------|-----------------|-----------------|-----------------|
G|-----------------|-5-5-5-5-5-5-5-5-|-6-6-6-6-6-6-6-6-|-6-6-6-6-6-6-6-6-|
D|-8-8-8-8-8-8-8-8-|-5-5-5-5-5-5-5-5-|-6-6-6-6-6-6-6-6-|-6-6-6-6-6-6-6-6-|
A|-8-8-8-8-8-8-8-8-|-3-3-3-3-3-3-3-3-|-4-4-4-4-4-4-4-4-|-4-4-4-4-4-4-4-4-|
E|-6-6-6-6-6-6-6-6-|-----------------|-----------------|-----------------|

e|-----------------|-----------------|-----------------|-----------------|
B|-----------------|-----------------|-----------------|-----------------|
G|-----------------|-5-5-5-5-5-5-5-5-|-6-6-6-6-6-6-6-6-|-5-5-5-5-5-5-5-5-|
D|-8-8-8-8-8-8-8-8-|-5-5-5-5-5-5-5-5-|-6-6-6-6-6-6-6-6-|-5-5-5-5-5-5-5-5-|
A|-8-8-8-8-8-8-8-8-|-3-3-3-3-3-3-3-3-|-4-4-4-4-4-4-4-4-|-3-3-3-3-3-3-3-3-|
E|-6-6-6-6-6-6-6-6-|-----------------|-----------------|-----------------|

e|-----------------|-----------------|-----------------|-----------------|
B|-----------------|-----------------|-----------------|-----------------|
G|-----------------|-5-5-5-5-5-5-5-5-|-6-6-6-6-6-6-6-6-|-6-6-6-6-6-6-6-6-|
D|-8-8-8-8-8-8-8-8-|-5-5-5-5-5-5-5-5-|-6-6-6-6-6-6-6-6-|-6-6-6-6-6-6-6-6-|
A|-8-8-8-8-8-8-8-8-|-3-3-3-3-3-3-3-3-|-4-4-4-4-4-4-4-4-|-4-4-4-4-4-4-4-4-|
E|-6-6-6-6-6-6-6-6-|-----------------|-----------------|-----------------|

e|-----------------|-----------------|-----------------|-----------------|------|-------|
B|-----------------|-----------------|-----------------|-----------------|------|-------|
G|-----------------|-5-5-5-5-5-5-5-5-|-6-6-6-6-6-6-6-6-|-5-5-5-5-5-5-5-5-|------|-------|
D|-8-8-8-8-8-8-8-8-|-5-5-5-5-5-5-5-5-|-6-6-6-6-6-6-6-6-|-5-5-5-5-5-5-5-5-|-8~---|-(8)---|
A|-8-8-8-8-8-8-8-8-|-3-3-3-3-3-3-3-3-|-4-4-4-4-4-4-4-4-|-3-3-3-3-3-3-3-3-|-8~---|-(8)---|
E|-6-6-6-6-6-6-6-6-|-----------------|-----------------|-----------------|-6~---|-(6)---|


[Chorus 1] (00:49)

Guitar 1 & 2

e|-----------------|-----------------|-----------------|-----------------|
B|-----------------|-----------------|-----------------|-----------------|
G|-----------------|-----------------|-----------------|-----------------|
D|-4-4-4-4-4-4-4-4-|-4-4-4-4-4-4-4-4-|-3-3-3-3-3-3-3-3-|-3-3-3-3-3-3-3-3-|
A|-4-4-4-4-4-4-4-4-|-4-4-4-4-4-4-4-4-|-3-3-3-3-3-3-3-3-|-3-3-3-3-3-3-3-3-|
E|-2-2-2-2-2-2-2-2-|-2-2-2-2-2-2-2-2-|-1-1-1-1-1-1-1-1-|-1-1-1-1-1-1-1-1-|(x4)


[Pre-verse] (01:19)

Guitar 1 only

e|-----------------|-----------------|-----------------|-----------------|
B|-----------------|-----------------|-----------------|-----------------|
G|-----------------|-5-5-5-5-5-5-5-5-|-6-6-6-6-6-6-6-6-|-6-6-6-6-6-6-6-6-|
D|-8-8-8-8-8-8-8-8-|-5-5-5-5-5-5-5-5-|-6-6-6-6-6-6-6-6-|-6-6-6-6-6-6-6-6-|
A|-8-8-8-8-8-8-8-8-|-3-3-3-3-3-3-3-3-|-4-4-4-4-4-4-4-4-|-4-4-4-4-4-4-4-4-|
E|-6-6-6-6-6-6-6-6-|-----------------|-----------------|-----------------|

e|-----------------|-----------------|-----------------|-----------------|
B|-----------------|-----------------|-----------------|-----------------|
G|-----------------|-5-5-5-5-5-5-5-5-|-6-6-6-6-6-6-6-6-|-5-5-5-5-5-5-5-5-|
D|-8-8-8-8-8-8-8-8-|-5-5-5-5-5-5-5-5-|-6-6-6-6-6-6-6-6-|-5-5-5-5-5-5-5-5-|
A|-8-8-8-8-8-8-8-8-|-3-3-3-3-3-3-3-3-|-4-4-4-4-4-4-4-4-|-3-3-3-3-3-3-3-3-|
E|-6-6-6-6-6-6-6-6-|-----------------|-----------------|-----------------|


[Verse 2] (01:34)

Guitar 1 only

e|-----------------|-----------------|-----------------|-----------------|
B|-----------------|-----------------|-----------------|-----------------|
G|-----------------|-5-5-5-5-5-5-5-5-|-6-6-6-6-6-6-6-6-|-6-6-6-6-6-6-6-6-|
D|-8-8-8-8-8-8-8-8-|-5-5-5-5-5-5-5-5-|-6-6-6-6-6-6-6-6-|-6-6-6-6-6-6-6-6-|
A|-8-8-8-8-8-8-8-8-|-3-3-3-3-3-3-3-3-|-4-4-4-4-4-4-4-4-|-4-4-4-4-4-4-4-4-|
E|-6-6-6-6-6-6-6-6-|-----------------|-----------------|-----------------|

e|-----------------|-----------------|-----------------|-----------------|
B|-----------------|-----------------|-----------------|-----------------|
G|-----------------|-5-5-5-5-5-5-5-5-|-6-6-6-6-6-6-6-6-|-5-5-5-5-5-5-5-5-|
D|-8-8-8-8-8-8-8-8-|-5-5-5-5-5-5-5-5-|-6-6-6-6-6-6-6-6-|-5-5-5-5-5-5-5-5-|
A|-8-8-8-8-8-8-8-8-|-3-3-3-3-3-3-3-3-|-4-4-4-4-4-4-4-4-|-3-3-3-3-3-3-3-3-|
E|-6-6-6-6-6-6-6-6-|-----------------|-----------------|-----------------|

e|-----------------|-----------------|-----------------|-----------------|
B|-----------------|-----------------|-----------------|-----------------|
G|-----------------|-5-5-5-5-5-5-5-5-|-6-6-6-6-6-6-6-6-|-6-6-6-6-6-6-6-6-|
D|-8-8-8-8-8-8-8-8-|-5-5-5-5-5-5-5-5-|-6-6-6-6-6-6-6-6-|-6-6-6-6-6-6-6-6-|
A|-8-8-8-8-8-8-8-8-|-3-3-3-3-3-3-3-3-|-4-4-4-4-4-4-4-4-|-4-4-4-4-4-4-4-4-|
E|-6-6-6-6-6-6-6-6-|-----------------|-----------------|-----------------|

e|-----------------|-----------------|-----------------|-----------------|------|-------|
B|-----------------|-----------------|-----------------|-----------------|------|-------|
G|-----------------|-5-5-5-5-5-5-5-5-|-6-6-6-6-6-6-6-6-|-5-5-5-5-5-5-5-5-|------|-------|
D|-8-8-8-8-8-8-8-8-|-5-5-5-5-5-5-5-5-|-6-6-6-6-6-6-6-6-|-5-5-5-5-5-5-5-5-|-8~---|-(8)---|
A|-8-8-8-8-8-8-8-8-|-3-3-3-3-3-3-3-3-|-4-4-4-4-4-4-4-4-|-3-3-3-3-3-3-3-3-|-8~---|-(8)---|
E|-6-6-6-6-6-6-6-6-|-----------------|-----------------|-----------------|-6~---|-(6)---|


[Chorus 2] (02:07)

Guitar 1 & 2

e|-----------------|-----------------|-----------------|-----------------|
B|-----------------|-----------------|-----------------|-----------------|
G|-----------------|-----------------|-----------------|-----------------|
D|-4-4-4-4-4-4-4-4-|-4-4-4-4-4-4-4-4-|-3-3-3-3-3-3-3-3-|-3-3-3-3-3-3-3-3-|
A|-4-4-4-4-4-4-4-4-|-4-4-4-4-4-4-4-4-|-3-3-3-3-3-3-3-3-|-3-3-3-3-3-3-3-3-|
E|-2-2-2-2-2-2-2-2-|-2-2-2-2-2-2-2-2-|-1-1-1-1-1-1-1-1-|-1-1-1-1-1-1-1-1-|(x4)

e|------|-------------------|
B|------|-------------------|
G|------|-------------------|
D|-8~---|-(8)-8-8-8-8-8-8-8-|
A|-8~---|-(8)-8-8-8-8-8-8-8-|
E|-6~---|-(6)-6-6-6-6-6-6-6-|


[Bridge] (02:41)

Guitar 1 & 2

e|-----------------|-----------------|-----------------|-----------------|
B|-----------------|-----------------|-----------------|-----------------|
G|-6-6-6-6-6-6-6-6-|-5-5-5-5-5-5-5-5-|-----------------|-----------------|
D|-6-6-6-6-6-6-6-6-|-5-5-5-5-5-5-5-5-|-8-8-8-8-8-8-8-8-|-8-8-8-8-8-8-8-8-| 
A|-4-4-4-4-4-4-4-4-|-3-3-3-3-3-3-3-3-|-8-8-8-8-8-8-8-8-|-8-8-8-8-8-8-8-8-|
E|-----------------|-----------------|-6-6-6-6-6-6-6-6-|-6-6-6-6-6-6-6-6-|(x4)


[Outro] (03:10)

Guitar 1

e|-----------------|-----------------|-----------------|-----------------|
B|-----------------|-----------------|-----------------|-----------------|
G|-6-6-6-6-6-6-6-6-|-5-5-5-5-8-8-8-8-|-----------------|-----------------|
D|-----------------|-----------------|-8-8-8-8-8-8-8-8-|-8-8-8-8-8-8-8-8-|
A|-----------------|-----------------|-----------------|-----------------|
E|-----------------|-----------------|-----------------|-----------------|

e|-----------------|-----------------|-----------------|-----------------|
B|-----------------|-----------------|-6-6-6-6-6-6-6-6-|-6-6-6-6-6-6-6-6-|
G|-6-6-6-6-6-6-6-6-|-5-5-5-5-8-8-8-8-|-----------------|-----------------|
D|-----------------|-----------------|-----------------|-----------------|
A|-----------------|-----------------|-----------------|-----------------|
E|-----------------|-----------------|-----------------|-----------------|

e|-----------------|-----------------|-----------------|-----------------|
B|-----------------|-----------------|-----------------|-----------------|
G|-6-6-6-6-6-6-6-6-|-5-5-5-5-8-8-8-8-|-----------------|-----------------|
D|-----------------|-----------------|-8-8-8-8-8-8-8-8-|-8-8-8-8-8-8-8-8-|
A|-----------------|-----------------|-----------------|-----------------|
E|-----------------|-----------------|-----------------|-----------------|

e|-----------------|-----------------|------|-------|
B|-----------------|-----------------|-6~---|-(6)---|
G|-6-6-6-6-6-6-6-6-|-5-5-5-5-8-8-8-8-|------|-------|
D|-----------------|-----------------|------|-------|
A|-----------------|-----------------|------|-------|
E|-----------------|-----------------|------|-------|

Guitar 2

e|-----------------|-----------------|-----------------|-----------------|
B|-----------------|-----------------|-----------------|-----------------|
G|-6-6-6-6-6-6-6-6-|-5-5-5-5-5-5-5-5-|-----------------|-----------------|
D|-6-6-6-6-6-6-6-6-|-5-5-5-5-5-5-5-5-|-8-8-8-8-8-8-8-8-|-8-8-8-8-8-8-8-8-|    
A|-4-4-4-4-4-4-4-4-|-3-3-3-3-3-3-3-3-|-8-8-8-8-8-8-8-8-|-8-8-8-8-8-8-8-8-|
E|-----------------|-----------------|-6-6-6-6-6-6-6-6-|-6-6-6-6-6-6-6-6-|(x3)

e|-----------------|-----------------|------|-------|
B|-----------------|-----------------|------|-------|
G|-6-6-6-6-6-6-6-6-|-5-5-5-5-5-5-5-5-|------|-------|
D|-6-6-6-6-6-6-6-6-|-5-5-5-5-5-5-5-5-|-8~---|-(8)---|
A|-4-4-4-4-4-4-4-4-|-3-3-3-3-3-3-3-3-|-8~---|-(8)---|
E|-----------------|-----------------|-6~---|-(6)---|



************************************

| (n)  Ghost note
| ~    Vibrato

************************************
Suggest correction
Give kudos to tab author, rate the tab!
1 2 3 4 5
comments
print report bad tab
guest
You may want to rate the tab now too:
select rating
Wanna post a correction for this tab? Suggest correction