Oops, an error
Loading. Please wait.

Headed For The Sun bass

by Dozer
1,017 views 1 this week
no commentswrite comment
1 2 3 4 5
3 more votes to show rating
add to favorites
×
Save as Personal and add changes to this tab that will be seen only by you. Learn more ›
×
You can save this tab as Personal to edit and correct it or add notes. All changes will be seen only by you. Learn more »
launch autoscroll
font size
0
reset
guitar tuner
edit
Autoscroll
slow
fast
+/-
esc
set tempo
stop
Headed For The Sun
Dozer
c. 1999 MeteorCity
http://www.dozermusic.com/


C tuning (down two steps)

~ = Let Ring
& = Rest
//= Slow Glissando
/ = Fast Glissando

Main Riff   (0:12 - 0:45)

D#|-----------------------------------|
A#|-----------------------------------|
F |----7-77777777777------------------|
C |-555-------------3336-666666666666-|

Chorus      (0:45 - 1:08)

D#|-------------------------7---7-||-------------------------------|
A#|-------------------------------||-------------------------------|
F |-7-77777--------------5-5-5-5--||-7-77777-----------------------|
C |--------6-666660-00000---------||--------6-666663-33333-6-66666-|

                            ^The two high A#'s are optional.

Post-Chorus (1:08 - 1:10)

D#|----|
A#|----|
F |----|
C |-0~-|

Main Riff   (1:10 - 1:44)

Chorus      (1:45 - 2:07)

Post Chorus (2:07 - 2:09)

Bridge I    (2:10 - 2:20)

D#|------|
A#|------|
F |------|
C |-0--&-| Rest when the guitars do their higher-pitched arpeggios

Bridge II   (2:20 - 3:14)

D#|-------------||-------------|
A#|-------------||-------------|
F |-----------7-||----------/7-|
C |-0-----3//6--||-0-----3/6---|
                        
                           ^The slide on the F string needs to be
                            from the third fret;
                            I suggest using your pinky to 
                            slide on the C string so you can
                            use your forefinger to slide on the F.


Bridge I    (3:14 - 3:25)

Post-Chorus (3:25 - 3:29)
                    
            ^Turn down the volume of your bass from 3:28
             so that it mutes by 3:29

Chorus      (3:36 - 3:58)

End on low C!



Now you're on your way to the Sun..

            
            
Suggest correction
Creating personal tab
Creating personal tab
You can edit any tab online and save it as your Personal.

You can edit, replace or remove any tab part or add personal notes – all changes will be seen only by you.

Personal tabs can be accessed anytime from any device, even offline.
Learn more »
Give kudos to tab author, rate the tab!
1 2 3 4 5
comments
print report bad tab
guest
You may want to rate the tab now too:
select rating
Wanna post a correction for this tab? Suggest correction