Oops, an error
Loading. Please wait.

Aint It Strange Tab

7,391 views 1 this week
3 commentsread comments
1 2 3 4 5
please rate
add to favorites
launch autoscroll
font size
0
reset
how to read this tab
guitar tuner
Autoscroll
slow
fast
+/-
esc
set tempo
stop
Help us to improve Ultimate-Guitar.com Take our survey!
×
-Ain't It Strange-

-Dr. Dog-
------------------

         E
Ain't it strange, how everybody says I love you
           F#m                                                E
Ain't it a shame, how a word can tell you more than words can say
           B
I need you here
        E        
Aint it strange, cause im always thinkin of ya
        F#m                                                 E 
Aint it shame, how a thought can catch the breeze and blow away
              B
And leave you here

       E C#m       F#m        B
Oh but I know, how bad it can get
    E      C#m         F#m    B
And I dont mind, baby, I dont mind
    E C#m       F#m           B
But I know, how soon we'll forget
E          C#m           F#m        B       E   
Time keeps wearin, baby, time takes care of me


Aint it strange, how a man who lives for nothing can change
Cause if he stays the same hell die a million days
Year by year
Theres a train, at the bottom of the ocean
And when it rains, we'll get close to where the water meets the sky
For you and I

Oh but I dont know, how far this can go
But I dont mind, baby, I dont mind
Theres no use in sayin what you've been sprayin  
Even strangers know how strange it can be

      A                A/G#  
We're only getting old    
      F#m                         E
Cause that's what we were told to do
         A                        A/G#
But they say were getting through
    F#m                       E
But whats that got to do with us
        E                       C#m
So come on and work it out

Riff:

E--------------------------------------------------------------------------|
B-----------8-9-9----------------------------------------------------------|
G-----9-8-9-8-9-9------------V-O-C-A-L--B-R-E-A-K--------------------------|
D-----8-7-8----------------------------------------------------------------|
A--------------------------------------------------------------------------|
E--------------------------------------------------------------------------|

E--------4h5--5/7---9\------9--9-9-7--|-10--10-10-9-7-----8-8-8-8-7-7-7-7--|
B--5---5----------------4-------------|---------------10-------------------|
G-------------------------------------|------------------------------------| x2
D-------------------------------------|------------------------------------|
A-------------------------------------|------------------------------------|
E-------------------------------------|------------------------------------|


E-------------------------------------|------------------------------------|
B-------------------------------------|------------------------------------|
G--------1h2--2/4---6\------6--6-6-4--|-7--7-7--6-4-2----5-5-5-5--4-4-4-4--|
D--2---2----------------1-------------|------------------------------------| x2
A-------------------------------------|------------------------------------|
E-------------------------------------|------------------------------------|
Suggest correction
Give kudos to tab author, rate the tab!
1 2 3 4 5
comments
print report bad tab
3 comments total.
0 reply
witmachine 958 wrote on November 28 2007, 09:12 pm

dr dog songs are great, no matta how you play em!

+1 reply
cornfetish 31 wrote on February 14 2014, 03:20 pm

The first part of the riff is an octave lower than you wrote it, but other than that its great

0 reply
ultradawn 32 wrote on May 6 2015, 07:51 pm

i try to keep in position when i play, so i play it sorta like this! hope it helps!

E---------------------------------|-------------------------------------|
B---------------------------------|-------------------------------------|
G---------------6-----6-6-6-6-----|-7-7--6------------------------------|
D-------6h7--9-----------------9--|---------9--7---10-10-10-10-9-9-9-9--|
A--7-7------------6---------------|-------------------------------------|
E---------------------------------|-------------------------------------|

guest
You may want to rate the tab now too:
select rating
Please do not post tabs as comments. Select "correction" instead!