Oops, an error
Loading. Please wait.

Black-Red Bass Tab

37 views 1 this week
no commentswrite comment
1 2 3 4 5
3 more votes to show rating
add to favorites
launch autoscroll
font size
0
reset
guitar tuner
Autoscroll
slow
fast
+/-
esc
set tempo
stop
Help us to improve Ultimate-Guitar.com Take our survey!
×
Author
Difficulty
intermediate
[Intro]  0:00-0:19
G|------------------------------------------------------|
D|--------2----------2-------------0-------------0------|
A|-----------4----------4----2-2-2---4-2---2-2-2---4-2--|  2x
E|--0--2--------0--2------------------------------------|

[Verse 1]  0:20-0:38
G|--------------------------------------------------------------------------------------|
D|------------------------------------------------2-----------2-------------------------|
A|----------------------0-5--0-5--0-5--0-5-----------4-----------4--2-2--2-2--2-2--2-2--|
E|--0-2--0-2--0-2--0-2----------------------0--2--------0--2----------------------------|

[Interlude 1]  0:39-0:57
G|------------------------------------------------------|
D|--------2----------2-------------0-------------0------|
A|-----------4----------4----2-2-2---4-2---2-2-2---4-2--|  2x
E|--0--2--------0--2------------------------------------|

[Verse 2]  0:58-1:16
G|--------------------------------------------------------------------------------------|
D|------------------------------------------------2-----------2-------------------------|
A|----------------------0-5--0-5--0-5--0-5-----------4-----------4--2-2--2-2--2-2--2-2--|
E|--0-2--0-2--0-2--0-2----------------------0--2--------0--2----------------------------|

[Chorus 1]  1:17-1:36
G|--2--2-2----2--2-2----2--2-2----2--2-2--------------------------------------------|
D|---------2---------2---------2---------2------------------------------------------|
A|------------------------------------------5--5-5-0--5--5-5-0--5--5-5-0--5--5-5-0--|  2x
E|----------------------------------------------------------------------------------|

[Interlude 2]  1:37-1:55
G|------------------------------------------------------|
D|--------2----------2-------------0-------------0------|
A|-----------4----------4----2-2-2---4-2---2-2-2---4-2--|  2x
E|--0--2--------0--2------------------------------------|

[Verse 3]  1:56-2:14
G|--------------------------------------------------------------------------------------|
D|------------------------------------------------2-----------2-------------------------|
A|----------------------0-5--0-5--0-5--0-5-----------4-----------4--2-2--2-2--2-2--2-2--|
E|--0-2--0-2--0-2--0-2----------------------0--2--------0--2----------------------------|

[Chorus 2]  2:15-2:34
G|--2--2-2----2--2-2----2--2-2----2--2-2--------------------------------------------|
D|---------2---------2---------2---------2------------------------------------------|
A|------------------------------------------5--5-5-0--5--5-5-0--5--5-5-0--5--5-5-0--|  2x
E|----------------------------------------------------------------------------------|

[Interlude 3]  2:35-3:11
G|-----------------------------------------------------------|
D|--------2----------4-2--2-------------0-------------0------|
A|-----------4--------------4----2-2-2----4-2---2-2-2---4-2--|  2x
E|--0--2--------0--2-----------------------------------------|

G|--------------------------------------------------------------------------------------|
D|------------------------------------------------2-----------2-------------------------|
A|----------------------0-5--0-5--0-5--0-5-----------4-----------4--2-2--2-2--2-2--2-2--|
E|--0-2--0-2--0-2--0-2----------------------0--2--------0--2----------------------------|

[Chorus 3]  3:12-3:59
G|--2--2-2----2--2-2----2--2-2----2--2-2--------------------------------------------|
D|---------2---------2---------2---------2------------------------------------------|
A|------------------------------------------5--5-5-0--5--5-5-0--5--5-5-0--5--5-5-0--|  5x
E|----------------------------------------------------------------------------------|

[Ending]  4:00-4:01
G|----2--|
D|--2----|
A|-------|
E|-------|
Suggest correction
Give kudos to tab author, rate the tab!
1 2 3 4 5
comments
print report bad tab
guest
You may want to rate the tab now too:
select rating
Wanna post a correction for this tab? Suggest correction