Oops, an error
Loading. Please wait.

Cuckoo chords

version 2
version 2

Whole song

by Dr. Dog
94 views 1 this week
no commentswrite comment
1 2 3 4 5
2 more votes to show rating
add to favorites
×
Save as Personal and add changes to this tab that will be seen only by you. Learn more ›
×
You can save this tab as Personal to edit and correct it or add notes. All changes will be seen only by you. Learn more »
launch autoscroll
font size
0
reset
transpose
0
reset
display chords
guitar tuner
edit
Autoscroll
slow
fast
+/-
esc
set tempo
stop
Author
Strumming
There is no strumming pattern for this song yet. and get +5 IQ
[Intro]
00:00 - 00:20, Riff 1, repeat x 4
e|----10-12-10----|----------------|
B|-12----------12-|-10----------10-|
G|----------------|----12----12----| Guitar 1
D|----------------|-------14-------|
A|----------------|----------------|
E|----------------|----------------|

e|-------------------------------|
B|-------------------------------|
G|------9------------------------| Guitar 2
D|-9-12---12-9-------------------|
A|-------------7-5-2-5-4---------|
E|-------------------------------|


00:20 - 00:36, Riff 2
e|-------------|
B|-------------|
G|---7-9---7-9-| Guitar 1
D|-9-----9-----|
A|-------------|
E|-------------|

e|-7--9---10--12-|-------------------|
B|-8--10--12--14-|-12-------14-------|
G|-9--9---12--14-|----12-------14----| Guitar 2
D|---------------|-------12-------14-|
A|---------------|-------------------|
E|---------------|-------------------|

00:37 - 00:46, Riff 3, repeat x 4
e|-7-------5-7-|
B|---8-5-8-----|
G|-------------| Guitar 1
D|-------------|
A|-------------|
E|-------------|

e|---------------|
B|---------------|
G|---------------| Guitar 2
D|-9---------7-9-|
A|---10-7-10-----|
E|---------------|

Em                         A
I never really left. I was never gone.
Em                         A
I never strayed too far from where I was
G                        A
I never noticed it. But now I know
  G              Em            D    Em
I come out for a minute and go back again
  G              Em            D    Em
Come out for a minute and I go back again
  G              Em            D    Em
Come out for a minute and I go back again
  G              Em            D    Em
Come out for a minute and I go back again

It goes on.
            (Riff 1)
It goes on.

Em                     A (Riff 2)
So strange it seems to want so bad.
Em                     A
To pine for things I never had
G                   A
So far the gate. So far the fence.
  G              Em            D    Em (Riff 3)
I was gone for a minute and go back again
  G              Em            D    Em
Come out for a minute and I go back again
  G              Em            D    Em
Come out for a minute and I go back again
  G              Em            D    Em
Come out for a minute and I go back again

It goes on.
         (Riff 1)
It goes on.

Em                         A                 (Riff 2)
And the cuckoo sang with his hoot and twang
Em                         A
He come out for a minute he went back again, getting out of the rain
G                   A
And the cuckoo sang, and the cuckoo sang
  G              Em            D    Em   (Riff 3)
Come out for a minute, he went back again
  G              Em            D    Em
Come out for a minute, he went back again
  G              Em            D    Em
Stone cold cuckoo! Hexed and hoodooed. Here!

Em  A
Em  A
G  A
G  Em  D  Em
G  Em  D  Em
G  Em  D  Em
Em  A
Em  A

Em                      A  (Riff 2)
Well, I was once just like you.
Em                      A
Born to roam and ramble too.
   G                   A
So strange it seems to fade to blue

        (Riff 3)
G  Em  D  Em

            
            
Suggest correction
Creating personal tab
Creating personal tab
You can edit any tab online and save it as your Personal.

You can edit, replace or remove any tab part or add personal notes – all changes will be seen only by you.

Personal tabs can be accessed anytime from any device, even offline.
Learn more »
Give kudos to tab author, rate the tab!
1 2 3 4 5
comments
print report bad tab
guest
You may want to rate the tab now too:
select rating
Wanna post a correction for this tab? Suggest correction