Oops, an error
Loading. Please wait.

Heart It Races bass

by Dr. Dog
5,193 views 21 this week
4 commentsread comments
1 2 3 4 5
x 7
add to favorites
×
Save as Personal and add changes to this tab that will be seen only by you. Learn more ›
×
You can save this tab as Personal to edit and correct it or add notes. All changes will be seen only by you. Learn more »
launch autoscroll
font size
0
reset
guitar tuner
edit
Autoscroll
slow
fast
+/-
esc
set tempo
stop
Author
Difficulty
I tried my best to get the rhythms right and I am pretty sure they are close. You 
are going to have to listen to the song to completely get them right. I am not 
entirely sure the ending is completely right either, but it is very close.



Intro/Chorus 1    0:22-0:42
G|--33-3----------------------------------------------------------|
D|-------5--3---------888---------888---------555-----------------|
A|----------------------------------------------------------------|
E|-------------6-6-6-------6-6-6-------3-3-3-------3-3-3-5-6-6-6--|

G|-----------------------------------------------|
D|--888---------888---------555------------------|
A|-----------------------------------------------|
E|-------6-6-6-------3-3-3-------3-3--66-6-3--1--|

Interlude    0:43-1:01
G|----------------------------------------------------------3---------------------------|
D|-----------------------------------------------------------53-------------------------|
A|--------------------------------------------------------------------------------------|
E|--6-6--66-6--6-6--66-6--3-3-3--3-3--66-6-3--1--6-6-6--6-6-------3-3-3--3-3--66-6-3-1--|

Chorus 2    1:02-1:22
G|------------------------------------------------------|
D|---------888---------888---------555------------------|
A|------------------------------------------------------|
E|--6-6-6-------6-6-6-------3-3-3-------3-3-3-35-6-6-6--|

G|-------------------------------------------|
D|--888---------888---------555--------------|
A|-------------------------------------------|
E|-------6-6-6-------3-3-3-------3-3-33-5-6--|

Verse 2    1:23-1:31
G|---------------------------|
D|---------------------------|
A|---------------------------|
E|--6--6--6-6-5-3-3--3-3--3--|

Bridge    1:32-1:50
G|------------------------------------------------------33-3-------|
D|-----------------------------------------------------------5--3--|
A|-----------------------------------------------------------------|
E|--6------6--8--3------5--6---6---6---6--8--3---3---3-------------|

Ending 1:51-End
G|---------3---------3----------------33-3-------|
D|-------35-53--------53-------------------5--3--|
A|-----------------------------------------------|  9x
E|--6-6---------6-6-------3-3-3--3-3-------------|

            
            
Suggest correction
Creating personal tab
Creating personal tab
You can edit any tab online and save it as your Personal.

You can edit, replace or remove any tab part or add personal notes – all changes will be seen only by you.

Personal tabs can be accessed anytime from any device, even offline.
Learn more »
comments
print report bad tab
4 comments total. Showing first comments.
0 reply
carlsonkyle24 10 Oct 06, 2015 12:24 PM

Any way to do this without the 13th fret? I'd rather move around on three strings in a small area than jumping around like that.. If not I'll figure something out I suppose

guest
You may want to rate the tab now too:
select rating
Wanna post a correction for this tab? Suggest correction