Oops, an error
Loading. Please wait.

In Love Chords

19 views 6 this week
no commentswrite comment
1 2 3 4 5
3 more votes to show rating
add to favorites
launch autoscroll
font size
0
reset
transpose
0
reset
simplify chords
display chords
guitar tuner
Autoscroll
slow
fast
+/-
esc
set tempo
stop
Help us to improve Ultimate-Guitar.com Take our survey!
×
[Chords variations used}
E|x
B|--7------6------7-------11----9--=|
G|--7------7------6-------12----9---|
D|--7------7------7-------12----9---|
A|--9------8------9-------10----11--|
E|--x------x------0-------10--------|
    D/F#  Dm/F   DM7/F#   Gm  Em/G#

[Intro]
pick open D with Dm chord then play as below  

E|-----1-1----------0--0---| 
B|-----1-1----------0--0---| 
G|-----1-1----------1--1---| 
D|-------------------------| 
A|-------------------------| 
E|--2--------0-------------| 
   DbM7      E          
Repeat above 4x

Dm

[Verse]
       D/F#
I was looking for a girl
           Dm/F
But you're all I see.
        DM7/F#            Dm/F     
I won't pay for you girl.
 
      D/F#
I was looking for a choice
           Dm/F
So was all of me.
        DM7/F#
To save something girl
Dm/F
Save something girl

[Chorus]
    Gm
(in love)
           Dm/F
I'd rather be with me
    D/F#
(in love)
E/G#       Dm    
I'd rather be with me
    Gm
(in love)
           Dm/F
I'd rather be with me
    D/F#
(in love)
E          Dm    
I'd rather be with me

pick open D with Dm chord then
E|-----1-1----------0--0---| 
B|-----1-1----------0--0---| 
G|-----1-1----------1--1---| 
D|-------------------------| 
A|-------------------------| 
E|--2--------0-------------| 
       DbM7         E       
Repeat above x4

Dm

[Verse]
      D/F#
I was looking for a girl
           Dm/F
But you're all I see.
      DM7/F#            
I can see something girl.
   Dm/F
It means something girl
 
       D/F#
I was looking for a choice
       Dm/F
So was all of me.
   DM7/F#
To save something girl
Dm/F
Save something girl

[Chorus]
    Gm
(in love)
           Dm/F
I'd rather be with me
    D/F#
(in love)
E/G#       Dm    
I'd rather be with me
    Gm
(in love)
           Dm/F
I'd rather be with me
    D/F#
(in love)
E          Dm    
I'd rather be with me

DbM7/F#     E          Dm      
I'd rather, I'd rather be with me.
DbM7/F#     E          Dm
I'd rather, I'd rather be with me.
(in love)
DbM7/F#     E          Dm
I'd rather, I'd rather be with me.
Suggest correction
Give kudos to tab author, rate the tab!
1 2 3 4 5
comments
print report bad tab
guest
You may want to rate the tab now too:
select rating
Wanna post a correction for this tab? Suggest correction