Oops, an error
Loading. Please wait.

Ive Just Got To Tell You Tab

3,585 views 1 this week
no commentswrite comment
1 2 3 4 5
please rate
add to favorites
launch autoscroll
font size
0
reset
how to read this tab
guitar tuner
Autoscroll
slow
fast
+/-
esc
set tempo
stop
Help us to improve Ultimate-Guitar.com Take our survey!
×
Contributor
benedictus41 1,688
-I've Just Got To Tell You-
-Dr. Dog-
---------------------------

Chords - A C#m F#m A7 D E7     
          A                           C#m
I'm gonna love you, till the day I was born
              A                                 C#m
And I'm gonna call you, so keep your ear to the horn
                      F#m
What the news, are ya sad
                          A
I ain't the groom or the dad
    F#m            D        E         A   
But Im the boy who loves to love you
             A                           C#m
And im gonna miss you till the day i come home
            A                      C#m
Im always a-roamin, even when Im in Rome
                     F#
Whats the use if its sad
                  A
Im only following Dad
F#m             D   E       A         
On the road and dreaming of you

Riff:
e|----------------------------------------|
B|------------------------5-5-5-----------|
G|--------4---4h6-6-------------6-2/6-6---|
D|--7-4-7---7-----------------------------|
A|----------------------------------------|
E|----------------------------------------|

e|----------------------------------------|
B|-----------------------/5-5-5-----------|
G|--------4---4h6-6-------------6-2/6-6---|
D|--7-4-7---7-----------------------------|
A|----------------------------------------|
E|----------------------------------------|

e|-----------------------------------------------------|
B|--5-5-5-----------5-5---5------------5-5---5---------|
G|----------------------6------------------6-----------|
D|--------7-6-7-------------7-6-7--------------7-6-7---|
A|-----------------------------------------------------|
E|-----------------------------------------------------|

e|--------------------------------------------------5-5-5-5-5-5-5-5-6--|
B|----------------------------------5-5-5-5-7-7-7-7--------------------|
G|----------4-4-4-4-6-6-6-6-7-7-7-7------------------------------------|
D|--7-7-7-7------------------------------------------------------------|
A|---------------------------------------------------------------------|
E|---------------------------------------------------------------------|

Oh the reason Im living, you made me all that I love
Every bit as forgiving, as the lord up above
There was a secret you heard
You told me every word
Now I just gotta tell you

A7

D                                   A
Whats the word for darkness in the light
                                      E
Whats it called when sun shines every night
                                   D    A    A7
I dont know how, but I just got to tell you
D                                      A
Whats the word that means more than a word
                                      E       
Thats better than the best thing ever heard
                                   D    A    A7
i dont know how, but I just got to tell you

E A

comments
We did not receive enough feedback on this tab! Please rate:
print report bad tab
1 2 3 4 5
I want to post or [tab]
guest
You may want to rate the tab now too:
select rating
Please do not post tabs as comments. Select "correction" instead!