Oops, an error
Loading. Please wait.

Little Bird Tab

version 2
version 2

Whole song

5,268 views 6 this week
2 commentsread comments
1 2 3 4 5
excellent!
x 4
add to favorites
launch autoscroll
font size
0
reset
how to read this tab
guitar tuner
Tab Pro tools
  • play this tab
  • loop segment
  • change instrument
  • show fretboard
  • metronome
×
Best way to learn
"Little Bird"
Autoscroll
slow
fast
+/-
esc
set tempo
stop
Contributor
-Little Bird-
-Dr. Dog-
-----------

   F#                     B
e|------------------------------------|
B|------------------------------------|
G|----------------------4-4-----------|
D|--4--4--6--6/8--6--4----4-----------|
A|--4---------------------2-----------|
E|--2---------------------------------| x2
                                        
F#                           B
I want to start calling you, babe
F#                     B
Take the phone off the hook
   F#            
If anyone hurted you
  B             
I dont know what I would do
D#m
If you gotta know
   Bm
Id put them in the ground
              F#
Where flowers grow
            C#7
Just so you know
D#m       B             Bbm
You go on delivering to hospitals
     D#m              B
With flowers made for you
     C#              B                   F#
That grew out of the ones whove done you wrong

Riff x2
                        F#
e|--/6-2----2-----------2-------------|
B|-------4----4--2------2-------------|
G|-----------------4-3--3-------------|
D|----------------------4-------------|
A|----------------------4-------------|
E|----------------------2-------------| 

F#                     B
Youve got love in your heart
F#               B
Im just after my part
F#  
A forget me not
B
From a man named Scott
D#m
He don't believe in god
    Bm                                F#
But he believes in those who say they do
              C#7
The ones like you
      D#m            B
So go on and put you toothbrush
       Bbm
In the bathroom sink
D#m                 B
we'll be here for a while
    C#        B                     F#
And watch the days go in and out of style

Riff x2 (Whistling)
                        F#
e|--/6-2----2-----------2-------------|
B|-------4----4--2------2-------------|
G|-----------------4-3--3-------------|
D|----------------------4-------------|
A|----------------------4-------------|
E|----------------------2-------------| 

F#                B  
Double check your alarm
F#                   B
Throw a swith on the fire
F#
Go upstairs and pee
B
Lay down next to me
D#m
But don't look at the clock
Bm                                F#
It's almost always later than you think

F# F#7

F#                   B
Theres no just in my punch
F#                 B
And my mind out to lunch
F#
So you do the talking cause
B
Youve got a voice thats like a
D#m               
Song Ive never heard
     Bm                          F# 
I'll sing along but I wont say a word
          C#7
My little bird

D#m B Bbm D#m B C# B F# (Whistling)

Riff x2 (Whistling)
                        F#
e|--/6-2----2-----------2-------------|
B|-------4----4--2------2-------------|
G|-----------------4-3--3-------------|
D|----------------------4-------------|
A|----------------------4-------------|
E|----------------------2-------------| 

Note: Repeat Intro Between ending Riffs 
comments
print report bad tab
2 comments total.
0 reply
coolestcatever wrote on November 27 2007, 01:06 pm

Dead on man, lets get more of the Doctors on here. Thanks!

-1 reply
equeiregoocu wrote on February 28 2012, 11:25 pm

If the other one was wrong, this isn't even in the ball park. Seriously, a power chord?

I want to post or [tab]
guest
You may want to rate the tab now too:
select rating
Please do not post tabs as comments. Select "correction" instead!