Oops, an error
Loading. Please wait.

My Friend Chords

13,305 views 6 this week
1 commentread comment
1 2 3 4 5
excellent!
x 4
add to favorites
launch autoscroll
font size
0
reset
transpose
0
reset
simplify chords
display chords
guitar tuner
Autoscroll
slow
fast
+/-
esc
set tempo
stop
Help us to improve Ultimate-Guitar.com Take our survey!
×
-----------------------------------------------------------------
My Friend - Dr. Dog
-----------------------------------------------------------------
Tabbed by:Jimmy Lacy
Email:JamesTLacy@gmail.com

Tuning: Standard

Intro

(rock the E chord then do the lick)

e|-----0---------------------------------------------------------|
b|-----0--------------------------5-5----------------------------|
g|-----1------------------4-4/6--------6\4-4---------------------|
d|-----2---------------------------------------------------------|
a|-----2---------------------------------------------------------|
e|-----0---------------------------------------------------------|

A                                        E
My friend says that the end holds nothing more
                   B                     C#Minor
He don't hide his shame, says its all the same
       A     B         E
Like a man without a name


INTRO AGAIN


A                                   E
Old days asleep in the shade by the Brandywine
             B              C#Minor
See a dog get paid, see a boy behave
      A      B         E       E(add 4th fret on 
E)
Every bone deserves a grave


E5     D#5         D5       C#5
But I heard the Good Lord's warning
         F#5  F5   E5       D#5
like he might not forget by the morning
G#Minor        C#Minor  G#Minor
With no more terrifying thoughts of dying
A                    C
ooh oooooh oooh


INTRO AGAIN


A                                    E
My Lord, I'm climbing aboard and I'm going home
           B                C#Minor
No time to lose, no time to pack
       A         B       E     E(add 4th fret on 
E)
Take a step and take it back


E5     D#5         D5       C#5
But I heard the Good Lord's warning
         F#5  F5   E5       D#5
like he might not forget by the morning
G#Minor        C#Minor  G#Minor
With no more terrifying thoughts of dying
A                    C
ooh oooooh oooh


E                                 C#Minor
Keep on with the living you'll soon enough be dead
             A           G#Minor       F#Minor
You got the whole world spinning in your head
                                  E
and you don't want to give it up (don't give it up, don't give it up)

E                                    C#minor
Cause no one should be sorry, we're just another day
         A  G#Minor  F#Minor
You can say you'll be back
                                                E
but you won't ever go away (won't go away, won't go away)

E                                     C#Minor
Cause love that never leaves is never ever welcome back
         A   G#Minor  F#Minor
and i'm running out of skin thick enough to hide in
E
(won't go away, won't go away)

E                                          C#Minor
Now hand in hand we're back in time we're chasing the train
A             G#Minor           F#minor
Looking back looking back to wave goodbye
                                    E
we're headed for the same disaster (don't give it up, don't give it up)


They play this lick a lot on the outro part
e|-------------------------------------------------------------------|
b|-------------------------------------------------------------------|
g|-------------------------------------------------------------------|
d|------- 2-2-----------2-2---------2-2--------------2---------------|
a|----------------------------------------------2/4------4\2--2------|
e|----2p0---------2p0--------2p0-------------------------------------|


Of course there are some other licks and solos, I have decided not to tab those.  Sorry 
there are some alignment issues.  Have fun.


| /  slide up
| \  slide down
| h  hammer-on
| p  pull-off
| ~  vibrato
| +  harmonic
| x  Mute note
Suggest correction What's this?
You can suggest a correction to this tab. Community and Mods will review your correction and vote to approve or reject it.
comments
print report bad tab
1 comment total.
0 reply
ultradawn 48 wrote on May 4 2015, 02:15 pm

easier to strum chord/melody for me when I do the intro like this:

e|-----0---------0--0------------------------|
b|-----0----0h2--------2h0-------------------|
g|-----1--------------------0----------------|
d|-----2-------------------------------------|
a|-----2-------------------------------------|
e|-----0-------------------------------------|

I want to post or [tab]
guest
You may want to rate the tab now too:
select rating
Please do not post tabs as comments. Select "correction" instead!